Coal Chamber

Fiend (ver. 5)

Coal Chamber

tabs

save to print version add songbook text version e-mail correct tuner
chordsukulelecavacokeyboardtabbassdrumsharmonicaflute Guitar Pro
close

there isn't a video lesson for this song

chords

Fiend (ver. 5)

	  		Transcribed by: The BoogerMan 
Email: [email protected] 
 
Dropped C: (C,G,C,F,A,D) 
 
------------------------------------------------------------------------------ 
------------------------------------------------------------------------------ 
------------------------------------------------------------------------------ 
------------------------------------------------------------------------------ 
------------------------------------------------------------------------------ 
-3--0--0--3--0--0--3--0--3--0--0--3--0--0--3--0------------------------------- 
 Played quitely on the bass                                                    
 
------------------------------------------------------------------------------ 
------------------------------------------------------------------------------ 
------------------------------------------------------------------------------ 
------------------------------------------------------------------------------ 
-3--0--0--3--0--0--3--0--3--0--0--3--0--0--6--5------------------------------- 
-3--0--0--3--0--0--3--0--3--0--0--3--0--0--6--5------------------------------- 
                                                                               
 
------------------------------------------------------------------------------ 
------------------------------------------------------------------------------ 
------------------------------------------------------------------------------ 
------------------------------------------------------------------------------ 
-3--0--0--3--0--0--3--0--3--0--0--3--0--0--6---6------------------------------ 
-3--0--0--3--0--0--3--0--3--0--0--3--0--0--6---6------------------------------ 
 Played after intro     X 2                                                    
 
------------------------------------------------------------------------------ 
------------------------------------------------------------------------------ 
------------------------------------------------------------------------------ 
------------------------------------------------------------------------------ 
------------------------------------------------------------------------------ 
-3--0--0--3--0--0--3--0--3--0--0--3--0--0--3--0------------------------------- 
 Repeat through Verse                                                          
 
------------------------------------------------------------------------------ 
------------------------------------------------------------------------------ 
------------------------------------------------------------------------------ 
-3--0--0--3--0--0--3--0--3--0--0--3--0--0--6--5------------------------------- 
-3--0--0--3--0--0--3--0--3--0--0--3--0--0--6--5------------------------------- 
-3--0--0--3--0--0--3--0--3--0--0--3--0--0--6--5------------------------------- 
                                                                               
 
------------------------------------------------------------------------------ 
------------------------------------------------------------------------------ 
------------------------------------------------------------------------------ 
-3--0--0--3--0--0--3--0--3--0--0--3--0--0--6--6------------------------------- 
-3--0--0--3--0--0--3--0--3--0--0--3--0--0--6--6------------------------------- 
-3--0--0--3--0--0--3--0--3--0--0--3--0--0--6--6------------------------------- 
 Chorus                                                                        
 
---------------------|-------------------------------------------------------- 
---------------------|-------------------------------------------------------- 
---------------------|-------------------------------------------------------- 
---------------------|-------------------------------------------------------- 
-3-3-2-3-3-2-33333-2-|-10-10-11-10-10-11-5-4-4-5-4-4-------------------------- 
-3-3-2-3-3-2-33333-2-|-10-10-11-10-10-11-5-4-4-5-4-4-------------------------- 
 Interlude (My Life) | (Do or die) 
 

		  

See also:

tabs James Blunt - Cry tabs Iron Butterfly - IronButterfly-in A Gadda Da Vida tabs Stone Sour - Through glass (ver. 2) tabs Candlebox - Far behind tabs Mudvayne - World so cold tabs James Blunt - Wisemen
e-chords

Other versions:

tabs Coal Chamber - Fiend tabs Dark New Day - Fiend tabs Coal Chamber - Fiend (ver. 2) tabs Coal Chamber - Fiend (ver. 3) tabs Coal Chamber - Fiend (ver. 4) tabs Coal Chamber - Fiend (ver. 5)
auto scroll beats size up size down change color hide chords drawings
tab show chords e-chords YouTube Clip e-chords hide all tabs e-chords go to top tab

share