Coal Chamber

Fiend (ver. 4)

Coal Chamber

tabs

save to print version add songbook text version e-mail correct tuner
chordsukulelecavacokeyboardtabbassdrumsharmonicaflute Guitar Pro
close

there isn't a video lesson for this song

chords

Fiend (ver. 4)

	  		Transcribed by: Jason Johnson 
Email: [email protected] 
 
This is how he played it on the late show with Carson daly and in their video. He's using a 7-string, but it doesn't matter in this song. 
 
Tuning: B (B,E,A,D,G,B) 
 
x = mute 
/ = slide 
 
 
main riff:  
------------------------------------------------------------------------------ 
------------------------------------------------------------------------------ 
------------------------------------------------------------------------------ 
------------------------------------------------------------------------------ 
------------------------------------------------------------------------------ 
-3-0-0--3-0-0--3-0---3-0-0--3-0-0--6-5---------------------------------------- 
                                                                               
main riff part 2: 
------------------------------------------------------------------------------ 
------------------------------------------------------------------------------ 
------------------------------------------------------------------------------ 
----------------------------------6------------------------------------------- 
----------------------------------6------------------------------------------- 
-3-0-0--3-0-0--3-0---3-0-0--3-0-0-4------------------------------------------- 
 
                                                                               
verse: with phaser pedal (speed at 0) 
------------------------------------------------------------------------------ 
------------------------------------------------------------------------------ 
------------------------------------------------------------------------------ 
------------------------------------------------------------------------------ 
------------------------------------------------------------------------------ 
-3-0-0--3-0-0--3-0---3-0-0--3-0-0--3-0---------------------------------------- 
 
                                                                               
1:09:  
--------------------------------------|--------------------------------------- 
--------------------------------------|--------------------------------------- 
--------------------------------------|--------------------------------------- 
--------------------------------------|--------------------------------------- 
--------------------------------------|--------------------------------------- 
-0-2-2--0-2-2--0-2-2--0-0-2--x-x--x-x-|-0-2-2--0-2-2--0-2-2--0-0-2--x-x-2----- 
                                                                               
1:37: still reasoning..... 
------------------------------------------------------------------------------ 
------------------------------------------------------------------------------ 
------------------------------------------------------------------------------ 
-6\5--6\5--6\5--6\5--5-5-5-5-------------------------------------------------- 
-4\3--4\3--4\3--4\3--3-3-3-3-------------------------------------------------- 
------------------------------------------------------------------------------ 
                                                                               
1:50: it's do or die..... 
------------------------------------------------------------------------------ 
------------------------------------------------------------------------------ 
------------------------------------------------------------------------------ 
-5-4--4-4-4-4---5-4--4-4-4-4-------------------------------------------------- 
-5-4--4-4-4-4---5-4--4-4-4-4-------------------------------------------------- 
-3-2--2-2-2-2---3-2--2-2-2-2-------------------------------------------------- 
 

		  

Full key step upFull key step up
Half key step upHalf key step up
Half key step downHalf key step down
Full key step downFull key step down
hide glossary

See also:

tabs Isaac Albeniz - Asturias (Leyenda) tabs Iron Butterfly - IronButterfly-in A Gadda Da Vida tabs Black Crowes - Jealous Again tabs Chris Cornell - Black Hole Sun tabs Hoobastank - The Reason Acoustic tabs Black Crowes - Hard To Handle
e-chords

Other versions:

tabs Coal Chamber - Fiend tabs Dark New Day - Fiend tabs Coal Chamber - Fiend (ver. 2) tabs Coal Chamber - Fiend (ver. 3) tabs Coal Chamber - Fiend (ver. 4) tabs Coal Chamber - Fiend (ver. 5)
auto scroll beats size up size down change color hide chords drawings
tab show chords e-chords YouTube Clip e-chords hide all tabs e-chords go to top tab

share