Coal Chamber

Dark Days

Coal Chamber

tabs

save to print version add songbook text version e-mail correct tuner
chordsukulelecavacokeyboardtabbassdrumsharmonicaflute Guitar Pro
close

there isn't a video lesson for this song

chords

Dark Days

	  		i didn't see enough coal chamber tabs for the cd, so i figured i'd try 
 
tunning : a e a d g b  
 
\ = slide down 
/ = slide up 
p = pull off 
h = hammer on 
^ = bend up and release 
- = palm mute 
 
 
intro / verse                  intro 2                guitar 2 
---------------               --------------------    ------------ 
---------------               --------------------    ------------ 
-8p7----7---7--               ------8-\-7-/-8-\-7-    -13-14---13- 
------0---0----               ------x---x---x---x-    -x--x----x-- 
---------------               -0-0--6-\-5-/-6-\-5-    -11-12---11- 
---------------               -0-0----------------    ------------ 
you can find out the rymthem 
 
chorus 
--------------------------------------------------------------- 
--------------------------------------------------------------- 
--------------------------------------------------------------- 2x's 
-7^--3-7--3-5----3-5---3-8-7-------7^--3-7--3-5----3-5---3-8-5- 
-7^--3-7--3-5----3-5---3-8-7-------7^--3-7--3-5----3-5---3-8-5- 
-7^--3-7--3-5----3-5---3-8-7-------7^--3-7--3-5----3-5---3-8-5- 
 
dark days part      intrelude thing 
------            ------------------------------------------------- 
------            ------------------------------------------------- 
------            -14-14-14-14-14-14-14-14------------------------- 
-0--0-            -x--x--x--x--x--x--x--x-----8-7--0-7-7--8-7--0-7- 
-0--0-            -12-12-12-12-12-12-12-12----8-7--0-7-7--8-7--0-7- 
-0--0-            ----------------------------8-7--0-7-7--8-7--0-7- 
                 some weird effect or somthing 
 
other dark days part 
--------------------------------------- 
--------------------------------------- 
--------------------------------------- 
-4-4-5----4-4-5----4-4-5-----4-4-5-5-4- 
-4-4-5----4-4-5----4-4-5-----4-4-5-5-4- 
-4-4-5----4-4-5----4-4-5-----4-4-5-5-4- 
 
end on 
------- 
------- 
------- 
-0-0-0- 
-0-0-0- 
-0-0-0- 
 - - - 
 
(please rate) 
theroofingfiddler 
 

		  

See also:

tabs Deftones - Change tabs Velvet Revolver - Fall to pieces tabs Darkness - I Believe in a Thing Called Love tabs Lifehouse - Blind Acoustic tabs Queens Of The Stone Age - Go with the Flow tabs Black Crowes - Remedy
e-chords

Other versions:

tabs Coal Chamber - Dark Days tabs Pup - Dark Days
auto scroll beats size up size down change color hide chords drawings
tab show chords e-chords YouTube Clip e-chords hide all tabs e-chords go to top tab

share