Coal Chamber

Burgundy

Coal Chamber

tabs

save to print version add songbook text version e-mail correct tuner
chordsukulelecavacokeyboardtabbassdrumsharmonicaflute Guitar Pro
close

there isn't a video lesson for this song

chords

Burgundy

	  		Guitarist: Miguel "Meegz" Rascon 
Tabbed By: Brandon Moroch ([email protected]) 
Tuning: B,E,A,D,g,b,e 
Key: ~= ring out  **#= feedback  
     \= slide       ^= bend 
 
I tabbed out all of the different parts for this song. You can figure 
out the order. This was not an easy song to tab, the guitar is clearly 
audible in some parts, due to the sampling and keyboards. i see no one tabbed  
this song, so i did. I gave it my best shot, i did it by ear with a guitar  
at my computer (with no amp) while listening to the song. I went back and tried  
it then on my amp and it sounded pretty darn good. For this song use  
some reverb, a little bit of a chorus effect, a flanging effect, echo,  
and lots of feedback for the settings (if you have a processor).  
 
 
intro 
|--------------12--------------------10~---14~----| 
|-----------------------------14~-----------------| 
|--**10h11^^^---------------------12~-------------| 
|-----------------------11~~----------------------| 
|-------------------------------------------------| 
|-------------------------------------------------| 
|-------------------------------------------------| 
 
main riff 
|---------10~---0------------------10~-----------------10--14^~~---------| 
|-------------14~--------------14~-----------------14~-------------------| 
|------12-------------12~-----------------12~----------------------12~---| 
|--11~~-------------------11~------------------11^~----------------------| 
|------------------------------------------------------------------------| 
|------------------------------------------------------------------------| 
|------------------------------------------------------------------------| 
 
 
fill.. "what have you done for me lately"                     
|-------------------------------------------------------------------------10~----| 
|-----------14\13^~------------14~-13~-15----------------------------------------| 
|-----12^~~---------------12^~------------15~--------------------**10h11^^-------| 
|--12------------------12~------------------------15~----------------------------| 
|--------------------------------------------------------------------------------| 
|--------------------------------------------------------------------------------| 
|--------------------------------------------------------------------------------| 
 
end 
|--------------------------------------------------------| 
|---------13~------------------16~-----------------------| 
|-----14~------15~---------14~------17^~~----------------| 
|--12~-----------------14~----------------------17^^^----| 
|--------------------------------------------------------| 
|--------------------------------------------------------| 
|--------------------------------------------------------| 
 

		  

See also:

tabs Deftones - Change tabs Velvet Revolver - Fall to pieces tabs Darkness - I Believe in a Thing Called Love tabs Lifehouse - Blind Acoustic tabs Queens Of The Stone Age - Go with the Flow tabs Black Crowes - Remedy
e-chords

Other versions:

tabs Coal Chamber - Burgundy
auto scroll beats size up size down change color hide chords drawings
tab show chords e-chords YouTube Clip e-chords hide all tabs e-chords go to top tab

share