Clueso

Du Bleibst

Clueso

tabs

by  ABELAMIN

save to print version add songbook text version e-mail correct tuner
chordsukulelecavacokeyboardtabbassdrumsharmonicaflute Guitar Pro
close

there isn't a video lesson for this song

chords

Du Bleibst

	  		
Intro: 

e|---7-8---7-8---7-8---7-8-7-7------------------------------------------------| 
B|-5-----5------5----5--------------------------------------------------------| 
G|----------------------------------------------------------------------------| 
D|----------------------------------------------------------------------------| 
A|----------------------------------------------------------------------------| 
E|----------------------------------------------------------------------------| 

Verses and Chorus: 

Always play C Am Em 


Solo: 

e|-------------12-10/12~--12h14-----------------------------------------------| 
B|-12-12-12-12------------------12~-------13-13-12-12-------12~-12------------| 
G|----------------------------------12h14-------------12-14-----12h14 12------| 
D|----------------------------------------------------------------------------| 
A|----------------------------------------------------------------------------| 
E|----------------------------------------------------------------------------| 


e|--15-17-19-17-19-15~--------------------------------------------------------| 
B|---------------------13-15-17-17-15-15-13~----------------------------------| 
G|-------------------------------------------16-12~-14-12---------------------| 
D|--------------------------------------------------------14p12h14------------| 
A|-----------------------------------------------------------------12-10------| 
E|-----------------------------------------------------------------------10-12| 

Outro: 

e|----------------------------------------------------------------------------| 
B|-------12~------------------------------------------------------------------| 
G|-12h14-----12b13-11---------------------------------------------------------| 
D|--------------------12/9/14~------------------------------------------------| 
A|----------------------------------------------------------------------------| 
E|----------------------------------------------------------------------------|  
		  

Full key step upFull key step up
Half key step upHalf key step up
Half key step downHalf key step down
Full key step downFull key step down
hide glossary

See also:

tabs Kraftklub - Eure Mädchen tabs Prinz Pi - Kompass Ohne Norden tabs J. Cole - No Role Modelz tabs Kraftklub - Unsere Fans tabs Cro - Whatever tabs Kraftklub - Ritalinmedikinet
e-chords

Other versions:

tabs Clueso - Du Bleibst
auto scroll beats size up size down change color hide chords drawings
tab show chords e-chords YouTube Clip e-chords hide all tabs e-chords go to top tab

share with facebook