Cleopatrick

Hometown Tab

Cleopatrick

Difficulty: nolevelnolevel

by aman%5Fclaudino

tuner correct add songbook print version text version save to e-mail
chordsukulelecavacokeyboardtabbassdrumsharmonicsflute Guitar Pro
close

there isn't a video lesson for this song

request
chords

Hometown

  		
Drop D


Intro 

 P.M.                      P.M. 
e|-------------------------|-------------------------| 
B|-------------------------|-------------------------| 
G|-------------------------|-------------------------| 
D|-------------------------|-------------------------| 
A|-------------------------|-------------------------| 
D|-12-12-12-12-12-12-12-12-|-12-12-12-12-12-12-12-12-| 


verse 1 

 P.M.                  P.M.              P.M.              P.M. 
e|--------------------|-----------------|-----------------|-----------------| 
B|--------------------|-----------------|-----------------|-----------------| 
G|--------------------|-----------------|-----------------|-----------------| 
D|--------------------|-----------------|-----------------|-----------------| 
A|--------------------|-----------------|-----------------|-----------------| 
D|-12-12-12-7-7-8-8-8-|-8-8-8-8-8-8-8-8-|-8-8-8-8-8-8-8-8-|-8-8-8-8-8-8-8-8-| 

  P.M.              P.M.              P.M.              P.M. 
e|-----------------|-----------------|-----------------|-----------------| 
B|-----------------|-----------------|-----------------|-----------------| 
G|-----------------|-----------------|-----------------|-----------------| 
D|-----------------|-----------------|-----------------|-----------------| 
A|-----------------|-----------------|-----------------|-----------------| 
D|-7-7-7-8-8-8-5-5-|-5-5-5-5-5-5-5-5-|-8-8-8-8-8-8-8-8-|-8-8-8-8-8-8-8-8-| 

  P.M.              P.M.              P.M.              P.M. 
e|-----------------|-----------------|-----------------|---------------------| 
B|-----------------|-----------------|-----------------|---------------------| 
G|-----------------|-----------------|-----------------|---------------------| 
D|-----------------|-----------------|-----------------|---------------------| 
A|-----------------|-----------------|-----------------|---------------------| 
D|-5-5-5-5-5-5-5-5-|-5-5-5-5-5-5-5-5-|-8-8-8-8-8-8-8-8-|-8-8-8-8-10-10-10-10-| 

  P.M.                 P.M.              P.M.              P.M. 
e|--------------------|-----------------|-----------------|-----------------| 
B|--------------------|-----------------|-----------------|-----------------| 
G|--------------------|-----------------|-----------------|-----------------| 
D|--------------------|-----------------|-----------------|-----------------| 
A|--------------------|-----------------|-----------------|-----------------| 
D|-12-12-12-7-7-8-8-8-|-8-8-8-8-8-8-8-8-|-8-8-8-8-8-8-8-8-|-8-8-8-8-8-8-8-8-| 

  P.M.              P.M. 
e|-----------------|-----------------|-----------------| 
B|-----------------|-----------------|-----------------| 
G|-----------------|-----------------|-----------------| 
D|-----------------|-----------------|-----------------| 
A|-----------------|-----------------|-----------------| 
D|-7-7-7-8-8-8-5-5-|-5-5-5-5-5-5-5-5-|-5-5-5-5-5-5-5-5-| 

  P.M.              P.M.              P.M.              P.M. 
e|-----------------|-----------------|-----------------|-----------------| 
B|-----------------|-----------------|-----------------|-----------------| 
G|-----------------|-----------------|-----------------|-----------------| 
D|-----------------|-----------------|-----------------|-----------------| 
A|-----------------|-----------------|-----------------|-----------------| 
D|-8-8-8-8-8-8-8-8-|-8-8-8-8-8-8-8-8-|-5-5-5-5-5-5-5-5-|-5-5-5-5-5-5-5-5-| 

  P.M.              P.M.              P.M.              P.M. 
e|-----------------|-----------------|-----------------|-----------------| 
B|-----------------|-----------------|-----------------|-----------------| 
G|-----------------|-----------------|-----------------|-----------------| 
D|-----------------|-----------------|-----------------|-----------------| 
A|-----------------|-----------------|-----------------|-----------------| 
D|-8-8-8-8-8-8-8-8-|-8-8-8-8-8-8-8-8-|-5-5-5-5-5-5-5-8-|-8-8-8-8-8-8-8-8-| 

  P.M.              P.M. 
e|-----------------|-----------------| 
B|-----------------|-----------------| 
G|-----------------|-----------------| 
D|-----------------|-----------------| 
A|-----------------|-----------------| 
D|-5-5-5-5-5-5-5-8-|-8-8-8-8-8-8-8-8-| 

  G                 G                 Bb                        Bb 
e|-----------------|-----------------|-------------------------|-------------------------| 
B|-----------------|-----------------|-------------------------|-------------------------| 
G|-7-7-7-7-7-7-7-7-|-7-7-7-7-7-7-7-7-|-10-10-10-10-10-10-10-10-|-10-10-10-10-10-10-10-10-| 
D|-5-5-5-5-5-5-5-5-|-5-5-5-5-5-5-5-5-|-8--8--8--8--8--8--8--8--|-8--8--8--8--8--8--8--8--| 
A|-5-5-5-5-5-5-5-5-|-5-5-5-5-5-5-5-5-|-8--8--8--8--8--8--8--8--|-8--8--8--8--8--8--8--8--| 
D|-5-5-5-5-5-5-5-5-|-5-5-5-5-5-5-5-5-|-8--8--8--8--8--8--8--8--|-8--8--8--8--8--8--8--8--| 

  G                 G                 Bb                        Bb 
e|-----------------|-----------------|-------------------------|-------------------------| 
B|-----------------|-----------------|-------------------------|-------------------------| 
G|-7-7-7-7-7-7-7-7-|-7-7-7-7-7-7-7-7-|-10-10-10-10-10-10-10-10-|-10-10-10-10-10-10-10-10-| 
D|-5-5-5-5-5-5-5-5-|-5-5-5-5-5-5-5-5-|-8--8--8--8--8--8--8--8--|-8--8--8--8--8--8--8--8--| 
A|-5-5-5-5-5-5-5-5-|-5-5-5-5-5-5-5-5-|-8--8--8--8--8--8--8--8--|-8--8--8--8--8--8--8--8--| 
D|-5-5-5-5-5-5-5-5-|-5-5-5-5-5-5-5-5-|-8--8--8--8--8--8--8--8--|-8--8--8--8--8--8--8--8--| 


Pre-Chorus *clean 

  Dm                Am                C                 G 
e|-5-5-5-5-5-5-5-5-|-5-5-5-5-5-5-5-5-|-0-0-0-0-0-0-0-0-|-3-3-3-3-3-3-3-3-| 
B|-6-6-6-6-6-6-6-6-|-5-5-5-5-5-5-5-5-|-5-5-5-5-5-5-5-5-|-3-3-3-3-3-3-3-3-| 
G|-7-7-7-7-7-7-7-7-|-5-5-5-5-5-5-5-5-|-5-5-5-5-5-5-5-5-|-4-4-4-4-4-4-4-4-| 
D|-7-7-7-7-7-7-7-7-|-7-7-7-7-7-7-7-7-|-5-5-5-5-5-5-5-5-|-5-5-5-5-5-5-5-5-| 
A|-5-5-5-5-5-5-5-5-|-7-7-7-7-7-7-7-7-|-0-0-0-0-0-0-0-0-|-5-5-5-5-5-5-5-5-| 
D|-0-0-0-0-0-0-0-0-|-0-0-0-0-0-0-0-0-|-x-x-x-x-x-x-x-x-|-0-0-0-0-0-0-0-0-| 

  Dm                Am                G                 G 
e|-5-5-5-5-5-5-5-5-|-5-5-5-5-5-5-5-5-|-3-3-3-3-3-3-3-3-|-3-3-3-3-3-3-3-3-| 
B|-6-6-6-6-6-6-6-6-|-5-5-5-5-5-5-5-5-|-3-3-3-3-3-3-3-3-|-3-3-3-3-3-3-3-3-| 
G|-7-7-7-7-7-7-7-7-|-5-5-5-5-5-5-5-5-|-4-4-4-4-4-4-4-4-|-4-4-4-4-4-4-4-4-| 
D|-7-7-7-7-7-7-7-7-|-7-7-7-7-7-7-7-7-|-5-5-5-5-5-5-5-5-|-5-5-5-5-5-5-5-5-| 
A|-5-5-5-5-5-5-5-5-|-7-7-7-7-7-7-7-7-|-5-5-5-5-5-5-5-5-|-5-5-5-5-5-5-5-5-| 
D|-0-0-0-0-0-0-0-0-|-0-0-0-0-0-0-0-0-|-0-0-0-0-0-0-0-0-|-0-0-0-0-0-0-0-0-| 

  G                 G 
e|-3-3-3-3-3-3-3-3-|-3-3-3-3-3-3-3-3-| 
D|-3-3-3-3-3-3-3-3-|-3-3-3-3-3-3-3-3-| 
G|-4-4-4-4-4-4-4-4-|-4-4-4-4-4-4-4-4-| 
D|-5-5-5-5-5-5-5-5-|-5-5-5-5-5-5-5-5-| 
A|-5-5-5-5-5-5-5-5-|-5-5-5-5-5-5-5-5-| 
D|-0-0-0-0-0-0-0-0-|-0-0-0-0-0-0-0-0-| 


Chorus 
e|-----------------|-----------------|-----------------|-----------------| 
B|-----------------|-----------------|-----------------|-----------------| 
G|-----------------|-----------------|-----------------|-----------------| 
D|-----------------|-----------------|-----------------|-----------------| 
A|-----------------|-----------------|-----------------|-----------------| 
D|--/12--0--0--0---|--/12--0--0--0---|---10--7--7--7---|---10--7--7--7---| 


e|-----------------|-----------------|-----------------|-----------------| 
B|-----------------|-----------------|-----------------|-----------------| 
G|-----------------|-----------------|-----------------|-----------------| 
D|-----------------|-----------------|-----------------|-----------------| 
A|-----------------|-----------------|-----------------|-----------------| 
D|--9---5---5---5--|--9---5---5---5--|--9---5---5---5--|--15--15--15--15-| 


e|-----------------|-----------------|-----------------|-----------------| 
B|-----------------|-----------------|-----------------|-----------------| 
G|-----------------|-----------------|-----------------|-----------------| 
D|-----------------|-----------------|-----------------|-----------------| 
A|-----------------|-----------------|-----------------|-----------------| 
D|--/12--0--0--0---|--/12--0--0--0---|---10--7--7--7---|---10--7--7--7---| 


e|-----------------|-----------------|-----------------|-----------------| 
B|-----------------|-----------------|-----------------|-----------------| 
G|-----------------|-----------------|-----------------|-----------------| 
D|-----------------|-----------------|-----------------|-----------------| 
A|-----------------|-----------------|-----------------|-----------------| 
D|--9---5---5---5--|--9---5---5---5--|--9---5---5---5--|--15--15--15--15-| 


verse 2 
 P.M.              P.M.              P.M.              P.M. 
e|-----------------|-----------------|-----------------|-------------------------| 
B|-----------------|-----------------|-----------------|-------------------------| 
D|-----------------|-----------------|-----------------|-------------------------| 
D|-----------------|-----------------|-----------------|-------------------------| 
A|-----------------|-----------------|-----------------|-------------------------| 
D|-0-0-0-0-0-0-0-0-|-8-8-8-8-8-8-8-8-|-0-0-0-0-0-0-0-0-|-10-10-10-10-10-10-10-10-| 

 P.M.              P.M.                      P.M.              P.M. 
e|-----------------|-------------------------|-----------------|-------------------------| 
B|-----------------|-------------------------|-----------------|-------------------------| 
G|-----------------|-------------------------|-----------------|-------------------------| 
D|-----------------|-------------------------|-----------------|-------------------------| 
A|-----------------|-------------------------|-----------------|-------------------------| 
D|-8-8-8-8-8-8-8-8-|-11-11-11-11-11-11-11-11-|-0-0-0-0-0-0-0-0-|-10-10-10-10-10-10-10-10-| 

 P.M.              P.M.              P.M.              P.M. 
e|-----------------|-----------------|-----------------|-------------------------| 
B|-----------------|-----------------|-----------------|-------------------------| 
D|-----------------|-----------------|-----------------|-------------------------| 
D|-----------------|-----------------|-----------------|-------------------------| 
A|-0-0-0-0-0-0-0-0-|-8-8-8-8-8-8-8-8-|-0-0-0-0-0-0-0-0-|-10-10-10-10-10-10-10-10-| 
D|-0-0-0-0-0-0-0-0-|-8-8-8-8-8-8-8-8-|-0-0-0-0-0-0-0-0-|-10-10-10-10-10-10-10-10-| 

 P.M.              P.M.                      P.M.              P.M. 
e|-----------------|-------------------------|-----------------|-------------------------| 
B|-----------------|-------------------------|-----------------|-------------------------| 
G|-----------------|-------------------------|-----------------|-------------------------| 
D|-----------------|-------------------------|-----------------|-------------------------| 
A|-8-8-8-8-8-8-8-8-|-11-11-11-11-11-11-11-11-|-0-0-0-0-0-0-0-0-|-10-10-10-10-10-10-10-10-| 
D|-8-8-8-8-8-8-8-8-|-11-11-11-11-11-11-11-11-|-0-0-0-0-0-0-0-0-|-10-10-10-10-10-10-10-10-| 

  G                 G                 Bb                        Bb 
e|-----------------|-----------------|-------------------------|-------------------------| 
B|-----------------|-----------------|-------------------------|-------------------------| 
G|-7-7-7-7-7-7-7-7-|-7-7-7-7-7-7-7-7-|-10-10-10-10-10-10-10-10-|-10-10-10-10-10-10-10-10-| 
D|-5-5-5-5-5-5-5-5-|-5-5-5-5-5-5-5-5-|-8--8--8--8--8--8--8--8--|-8--8--8--8--8--8--8--8--| 
A|-5-5-5-5-5-5-5-5-|-5-5-5-5-5-5-5-5-|-8--8--8--8--8--8--8--8--|-8--8--8--8--8--8--8--8--| 
D|-5-5-5-5-5-5-5-5-|-5-5-5-5-5-5-5-5-|-8--8--8--8--8--8--8--8--|-8--8--8--8--8--8--8--8--| 

  G                 G                 Bb                        Bb 
e|-----------------|-----------------|-------------------------|-------------------------| 
B|-----------------|-----------------|-------------------------|-------------------------| 
G|-7-7-7-7-7-7-7-7-|-7-7-7-7-7-7-7-7-|-10-10-10-10-10-10-10-10-|-10-10-10-10-10-10-10-10-| 
D|-5-5-5-5-5-5-5-5-|-5-5-5-5-5-5-5-5-|-8--8--8--8--8--8--8--8--|-8--8--8--8--8--8--8--8--| 
A|-5-5-5-5-5-5-5-5-|-5-5-5-5-5-5-5-5-|-8--8--8--8--8--8--8--8--|-8--8--8--8--8--8--8--8--| 
D|-5-5-5-5-5-5-5-5-|-5-5-5-5-5-5-5-5-|-8--8--8--8--8--8--8--8--|-8--8--8--8--8--8--8--8--| 


Pre-Chorus 
e|-5-5-5-5-5-5-5-5-|-5-5-5-5-5-5-5-5-|-0-0-0-0-0-0-0-0-|-3-3-3-3-3-3-3-3-| 
B|-6-6-6-6-6-6-6-6-|-5-5-5-5-5-5-5-5-|-5-5-5-5-5-5-5-5-|-3-3-3-3-3-3-3-3-| 
G|-7-7-7-7-7-7-7-7-|-5-5-5-5-5-5-5-5-|-5-5-5-5-5-5-5-5-|-4-4-4-4-4-4-4-4-| 
D|-7-7-7-7-7-7-7-7-|-7-7-7-7-7-7-7-7-|-5-5-5-5-5-5-5-5-|-5-5-5-5-5-5-5-5-| 
A|-5-5-5-5-5-5-5-5-|-7-7-7-7-7-7-7-7-|-0-0-0-0-0-0-0-0-|-5-5-5-5-5-5-5-5-| 
D|-0-0-0-0-0-0-0-0-|-0-0-0-0-0-0-0-0-|-x-x-x-x-x-x-x-x-|-0-0-0-0-0-0-0-0-| 


e|-3-3-3-3-3-3-3-3-|-3-3-3-3-3-3-3-3-|-3-3-3-3-3-3-3-3-|-3-3-3-3-3-3-3-3-| 
D|-3-3-3-3-3-3-3-3-|-3-3-3-3-3-3-3-3-|-3-3-3-3-3-3-3-3-|-3-3-3-3-3-3-3-3-| 
G|-4-4-4-4-4-4-4-4-|-4-4-4-4-4-4-4-4-|-4-4-4-4-4-4-4-4-|-4-4-4-4-4-4-4-4-| 
D|-5-5-5-5-5-5-5-5-|-5-5-5-5-5-5-5-5-|-5-5-5-5-5-5-5-5-|-5-5-5-5-5-5-5-5-| 
A|-5-5-5-5-5-5-5-5-|-5-5-5-5-5-5-5-5-|-5-5-5-5-5-5-5-5-|-5-5-5-5-5-5-5-5-| 
D|-0-0-0-0-0-0-0-0-|-0-0-0-0-0-0-0-0-|-0-0-0-0-0-0-0-0-|-0-0-0-0-0-0-0-0-| 


Chorus 
e|-----------------|-----------------|-----------------|-----------------| 
B|-----------------|-----------------|-----------------|-----------------| 
G|-----------------|-----------------|-----------------|-----------------| 
D|-----------------|-----------------|-----------------|-----------------| 
A|-----------------|-----------------|-----------------|-----------------| 
D|--/12--0--0--0---|--/12--0--0--0---|---10--7--7--7---|---10--7--7--7---| 


e|-----------------|-----------------|-----------------|-----------------| 
B|-----------------|-----------------|-----------------|-----------------| 
G|-----------------|-----------------|-----------------|-----------------| 
D|-----------------|-----------------|-----------------|-----------------| 
A|-----------------|-----------------|-----------------|-----------------| 
D|--9---5---5---5--|--9---5---5---5--|--9---5---5---5--|--15--15--15--15-| 


e|-----------------|-----------------|-----------------|-----------------| 
B|-----------------|-----------------|-----------------|-----------------| 
G|-----------------|-----------------|-----------------|-----------------| 
D|-----------------|-----------------|-----------------|-----------------| 
A|-----------------|-----------------|-----------------|-----------------| 
D|--/12--0--0--0---|--/12--0--0--0---|---10--7--7--7---|---10--7--7--7---| 


e|-----------------|-----------------|-----------------|-----------------| 
B|-----------------|-----------------|-----------------|-----------------| 
G|-----------------|-----------------|-----------------|-----------------| 
D|-----------------|-----------------|-----------------|-----------------| 
A|-----------------|-----------------|-----------------|-----------------| 
D|--9---5---5---5--|--9---5---5---5--|--9---5---5---5--|--15--15--15--15-| 


e|-----------------|-----------------|-----------------|-----------------| 
B|-----------------|-----------------|-----------------|-----------------| 
G|-----------------|-----------------|-----------------|-----------------| 
D|-----------------|-----------------|-----------------|-----------------| 
A|-----------------|-----------------|-----------------|-----------------| 
D|--/12--0--0--0---|--/12--0--0--0---|---10--7--7--7---|---10--7--7--7---| 


e|-----------------|-----------------|-----------------|-----------------| 
B|-----------------|-----------------|-----------------|-----------------| 
G|-----------------|-----------------|-----------------|-----------------| 
D|-----------------|-----------------|-----------------|-----------------| 
A|-----------------|-----------------|-----------------|-----------------| 
D|--9---5---5---5--|--9---5---5---5--|--9---5---5---5--|--15--15--15--15-| 

e|-----------------|-----------------|-----------------|-----------------| 
B|-----------------|-----------------|-----------------|-----------------| 
G|-----------------|-----------------|-----------------|-----------------| 
D|-----------------|-----------------|-----------------|-----------------| 
A|-----------------|-----------------|-----------------|-----------------| 
D|--/12--0--0--0---|--/12--0--0--0---|---10--7--7--7---|---10--7--7--7---| 


e|-----------------|-----------------|-----------------|-----------------| 
B|-----------------|-----------------|-----------------|-----------------| 
G|-----------------|-----------------|-----------------|-----------------| 
D|-----------------|-----------------|-----------------|-----------------| 
A|-----------------|-----------------|-----------------|-----------------| 
D|--8---8---8---8--|--8---8---8---8--|--10--10--10--10-|--10--11--11--11-| 


Bridge 
e|-----------------|-----------------|-----------------|-------------------------| 
B|-----------------|-----------------|-----------------|-------------------------| 
G|-----------------|-----------------|-----------------|-------------------------| 
D|-8-8-8-8-8-8-8-8-|-5-5-5-5-5-5-5-5-|-0-0-0-0-0-0-0-0-|-10-10-10-10-10-10-10-10-| 
A|-8-8-8-8-8-8-8-8-|-5-5-5-5-5-5-5-5-|-0-0-0-0-0-0-0-0-|-10-10-10-10-10-10-10-10-| 
D|-8-8-8-8-8-8-8-8-|-5-5-5-5-5-5-5-5-|-0-0-0-0-0-0-0-0-|-10-10-10-10-10-10-10-10-| 


e|-----------------|-----------------|-----------------|-------------------------| 
B|-----------------|-----------------|-----------------|-------------------------| 
G|-----------------|-----------------|-----------------|-------------------------| 
D|-8-8-8-8-8-8-8-8-|-5-5-5-5-5-5-5-5-|-0-0-0-0-0-0-0-0-|-10-10-10-10-10-10-10-10-| 
A|-8-8-8-8-8-8-8-8-|-5-5-5-5-5-5-5-5-|-0-0-0-0-0-0-0-0-|-10-10-10-10-10-10-10-10-| 
D|-8-8-8-8-8-8-8-8-|-5-5-5-5-5-5-5-5-|-0-0-0-0-0-0-0-0-|-10-10-10-10-10-10-10-10-| 


e|-----------------|-----------------|-----------------|-----------------| 
B|-----------------|-----------------|-----------------|-----------------| 
G|-----------------|-----------------|-----------------|-----------------| 
D|-8-8-8-8-8-8-8-8-|-5-5-5-5-5-5-5-5-|-8-8-8-8-8-8-8-8-|-5-5-5-5-5-5-5-5-| 
A|-8-8-8-8-8-8-8-8-|-5-5-5-5-5-5-5-5-|-8-8-8-8-8-8-8-8-|-5-5-5-5-5-5-5-5-| 
D|-8-8-8-8-8-8-8-8-|-5-5-5-5-5-5-5-5-|-8-8-8-8-8-8-8-8-|-5-5-5-5-5-5-5-5-| 


e|-----------------|-------------------------| 
B|-----------------|-------------------------| 
G|-----------------|-------------------------| 
D|-8-8-8-8-8-8-8-8-|-10-10-10-10-10-11-11-11-| 
A|-8-8-8-8-8-8-8-8-|-10-10-10-10-10-11-11-11-| 
D|-8-8-8-8-8-8-8-8-|-10-10-10-10-10-11-11-11-| 


e|-----------------|-----------------|-----------------|-----------------| 
B|-----------------|-----------------|-----------------|-----------------| 
G|--------------14-|--14--10--10--10-|--------------9--|--9---5---5---5--| 
D|--0---0---0---0--|-----------------|--7---7---7---7--|-----------------| 
A|--0---0---0---0--|-----------------|--7---7---7---7--|-----------------| 
D|--0---0---0---0--|-----------------|--7---7---7---7--|-----------------| 


e|-----------------|-----------------|-----------------|-----------------| 
B|--------------3--|--3--------------|--------------5b-|-5b--5b--5b--5b--| 
G|-----------------|------4---4---4--|-----------------|-----------------| 
D|--5---5---5---5--|-----------------|--5---5---5---5--|-----------------| 
A|--5---5---5---5--|-----------------|--5---5---5---5--|-----------------| 
D|--5---5---5---5--|-----------------|--5---5---5---5--|-----------------| 


e|-----------------|-----------------|-----------------|-----------------| 
B|-----------------|-----------------|-----------------|-----------------| 
G|--------------14-|--14--10--10--10-|--------------9--|--9---5---5---5--| 
D|--0---0---0---0--|-----------------|--7---7---7---7--|-----------------| 
A|--0---0---0---0--|-----------------|--7---7---7---7--|-----------------| 
D|--0---0---0---0--|-----------------|--7---7---7---7--|-----------------| 


e|-----------------|-----------------|-----------------|-----------------| 
B|--------------3--|--3--------------|-----------------|-5b--------------| 
G|-----------------|------4---4---4--|-----------------|-----------------| 
D|--5---5---5---5--|-----------------|--5---5---5---5--|-----------------| 
A|--5---5---5---5--|-----------------|--5---5---5---5--|-----------------| 
D|--5---5---5---5--|-----------------|--5---5---5---5--|-----------------| 


Chorus 
e|-----------------|-----------------|-----------------|-----------------| 
B|-----------------|-----------------|-----------------|-----------------| 
G|--------------14-|--14--10--10--10-|--------------9--|--9---5---5---5--| 
D|--0---0---0---0--|--0---0---0---0--|-----------------|-----------------| 
A|--0---0---0---0--|--0---0---0---0--|--7---7---7---7--|--7---7---7---7--| 
D|--0---0---0---0--|--0---0---0---0--|--7---7---7---7--|--7---7---7---7--| 


e|--3---3---3---3--|--3---3---3---3--|--3---3---3---3--|--3---3---3---3--| 
B|--3---3---3---3--|--3---3---3---3--|--3---3---3---5b-|--5b--5b--5b--5b-| 
G|--4---4---4---4--|--4---4---4---4--|--4---4---4---4--|--4---4---4---4--| 
D|--5---5---5---5--|--5---5---5---5--|--x---x---x---x--|--x---x---x---x--| 
A|--5---5---5---5--|--5---5---5---5--|--5---5---5---5--|--5---5---5---5--| 
D|--0---0---0---0--|--0---0---0---0--|--0---0---0---0--|--0---0---0---0--| 
*accent the same pattern on the strings as you have been 

e|-----------------|-----------------|-----------------|-----------------| 
B|-----------------|-----------------|-----------------|-----------------| 
G|--------------14-|--14--10--10--10-|--------------9--|--9---5---5---5--| 
D|--0---0---0---0--|--0---0---0---0--|-----------------|-----------------| 
A|--0---0---0---0--|--0---0---0---0--|--7---7---7---7--|--7---7---7---7--| 
D|--0---0---0---0--|--0---0---0---0--|--7---7---7---7--|--7---7---7---7--| 


e|--3---3---3---3--|--3---3---3---3--|--3---3---3---3--|--3---3---3---3--| 
B|--3---3---3---3--|--3---3---3---3--|--3---3---3---5b-|--5b--5b--5b--5b-| 
G|--4---4---4---4--|--4---4---4---4--|--4---4---4---4--|--4---4---4---4--| 
D|--5---5---5---5--|--5---5---5---5--|--x---x---x---x--|--x---x---x---x--| 
A|--5---5---5---5--|--5---5---5---5--|--5---5---5---5--|--5---5---5---5--| 
D|--0---0---0---0--|--0---0---0---0--|--0---0---0---0--|--0---0---0---0--| 


e|-------------13-13-13-13|-------------13-13-13-13|---------10-10-10-10|---------10-10-10-10| 
B|------------------------|------------------------|--------------------|--------------------| 
G|-10-10-10-10-10-10-10-10|-10-10-10-10-10-10-10-10|-7-7-7-7-7--7--7--7-|-7-7-7-7-7--7--7--7-| 
D|-8--8--8--8--8--8--8--8-|-8--8--8--8--8--8--8--8-|-5-5-5-5-5--5--5--5-|-5-5-5-5-5--5--5--5-| 
A|-8--8--8--8--8--8--8--8-|-8--8--8--8--8--8--8--8-|-5-5-5-5-5--5--5--5-|-5-5-5-5-5--5--5--5-| 
D|-8--8--8--8--8--8--8--8-|-8--8--8--8--8--8--8--8-|-5-5-5-5-5--5--5--5-|-5-5-5-5-5--5--5--5-| 
*a pitch shift is used but playing notes on the high e has a similar effect 

e|-------------13-13-13-13|-------------13-13-13-13|------------------------|------------------------| 
B|------------------------|------------------------|------------------------|------------------------| 
G|-10-10-10-10-10-10-10-10|-10-10-10-10-10-10-10-10|------------------------|------------------------| 
D|-8--8--8--8--8--8--8--8-|-8--8--8--8--8--8--8--8-|-10-10-10-10-10-10-10-10|-11-11-11-11-11-11-11-11| 
A|-8--8--8--8--8--8--8--8-|-8--8--8--8--8--8--8--8-|-10-10-10-10-10-10-10-10|-11-11-11-11-11-11-11-11| 
D|-8--8--8--8--8--8--8--8-|-8--8--8--8--8--8--8--8-|-10-10-10-10-10-10-10-10|-11-11-11-11-11-11-11-11| 


Ending 
e|-----------------|-----------------|-----------------|-----------------| 
B|-----------------|-----------------|-----------------|-----------------| 
G|--------------14-|--14--10--10--10-|--------------9--|--9---5---5---5--| 
D|--0---0---0---0--|-----------------|--7---7---7---7--|-----------------| 
A|--0---0---0---0--|-----------------|--7---7---7---7--|-----------------| 
D|--0---0---0---0--|-----------------|--7---7---7---7--|-----------------| 


e|-----------------|-----------------|-----------------|-----------------| 
B|--------------3--|--3--------------|--------------5b-|-5b--5b--5b--5b--| 
G|-----------------|------4---4---4--|-----------------|-----------------| 
D|--5---5---5---5--|-----------------|--5---5---5---5--|-----------------| 
A|--5---5---5---5--|-----------------|--5---5---5---5--|-----------------| 
D|--5---5---5---5--|-----------------|--5---5---5---5--|-----------------| 


e|-----------------|-----------------|-----------------|-----| 
B|-----------------|-----------------|-----------------|-----| 
G|-----------------|-----------------|-----------------|-----| 
D|--0---0---0---0--|--0---0---0---0--|--0---0---0---0--|--0--| 
A|--0---0---0---0--|--0---0---0---0--|--0---0---0---0--|--0--| 
D|--0---0---0---0--|--0---0---0---0--|--0---0---0---0--|--0--| 


*********************************** 

| /   Slide up 
| b   Bend 

*********************************** 
	  

Full key step upFull key step up
Half key step upHalf key step up
Half key step downHalf key step down
Full key step downFull key step down
Search Paypal
auto scroll beats size up size down change color hide chords drawings
tab show chords e-chords YouTube Clip e-chords hide all tabs e-chords go to top tab

share with facebook