save to print version add songbook text version e-mail correct tuner
chordsukulelecavacokeyboardtabbassdrumsharmonicaflute Guitar Pro
close

there isn't a video lesson for this song

chords

Tempo

Key:  Em More
Tempo Key BmBm
Tempo Key CmCm
Tempo Key C#mC#m
Tempo Key DmDm(one step down)
Tempo Key D#mD#m(half step down)
Tempo Key EmEm(original key)
Tempo Key FmFm(half step up)
Tempo Key F#mF#m(one step up)
Tempo Key GmGm
Tempo Key G#mG#m
Tempo Key AmAm
Tempo Key A#mA#m
	  		Em 

 
E|-------------------------------- 
B|---------0---------------0------ (Esses dedilhados são usados na introdução e durante 
G|-----0-------0-------0-------0--         uma parte da música) 
D|---5---5---5---5---5---5---5---5 
A|-7---------------7-------------- 
E|-------------------------------- 
 

C 

 
E|-------------------------------- 
B|---------0---------------0------ 
G|-----0-------0-------0-------0-- 
D|---5---5---5---5---5---5---5---5 
A|-3---------------3-------------- 
E|-------------------------------- 
 

G 

 
E|-------------------------------------- 
B|------------0----------------0-------- 
G|-------0---------0------0---------0--- 
D|----12---12---12-----12---12---12---12 
A|-10---------------10------------------ 
E|-------------------------------------- 
 

D 

 
E|-------------------------------- 
B|-------------------------------- 
G|-----0-------0-------0-------0-- 
D|---4---4---5---5---7---7---5---5 
A|-5-------5-------5-------5------ 
E|-------------------------------- 
 

 Em                  C           G                       D D4 D5 D4 
Já faz tempo que eu penso em você, e não consigo mais dormir 

Em                    C             G                 D    D4 D5 D4 
Conto os segundos para poder te ver, me fazer de bobo para te fazer 
  Em C  G                        D                     C D C D  <-- pré refrão 
sorrir... Quando foi que meu sorriso dependeu tanto de ti? 

C 

 
E|---------------------------------- (Essa parte é usada no pré-refrão) 
B|----------5----------------5------ 
G|------0-------0--------0-------0-- 
D|----5---5---5---5----5---5---5---5 
A|-3----------------3--------------- 
E|---------------------------------- 
 

D 

 
E|---------------------------------- 
B|----------7----------------7------ 
G|------0-------0--------0-------0-- 
D|----7---7---7---7----7---7---7---7 
A|-5----------------5--------------- 
E|---------------------------------- 
 


             G                D                               C         D 
Refrão|     Hoje vou te encontrar, não importa aonde você está, pois o tempo 
      | 
      |passa e não dá para voltar 
       |   G                  D                 C            D 
      |    Hoje quero te abraçar, e não vou soltar o mundo gira e a gente 
      |fica 

 
   G                                           D 
E|--------------------------------------------------------------------------- (Esses são os 
B|-----------13--------------------12-----------------8---------------7------  dedilhados do 
G|------0----------0----------0----------0--------0-------0-------0-------0--     refrão) 
D|---10---10----10---10----10---10----10---10---7---7---7---7---7---7---7---7 
A|12--------------------12--------------------5---------------5-------------- 
E|--------------------------------------------------------------------------- 
 

 
   C                                 D 
E|--------------------------------------------------------------------------- 
B|----------5---------------5---------------7---------------8---------------- 
G|------0-------0-------0-------0-------0-------0-------0-------0------------ 
D|----5---5---5---5---5---5---5---5---7---7---7---7---7---7---7---7---------- 
A|-3----------------3---------------5---------------5------------------------ 
E|--------------------------------------------------------------------------- 
 


(Em C G D) 

Em                    C                  G              D  D4 D5 
Fecho os olhos mas o tempo não faz passar a saudade que eu estou 
D4   Em 
sentindo 
                  C              G             D D4 D5 D4        Em C 
E se sonho com você, posso te ver, ao meu lado e sorrindo para mim 
    G                        D                     C D C D <--- pré refrão 
... Quando foi que o meu sorriso dependeu tanto de ti? 

(refrão) 
		  

Full key step upFull key step up
Half key step upHalf key step up
Half key step downHalf key step down
Full key step downFull key step down
hide glossary

See also:

tabs Capital Inicial - Natasha tabs Legião Urbana - Índios tabs Legião Urbana - Hoje A Noite Não Tem Luar tabs Legião Urbana - Ainda É Cedo tabs Raul Seixas - Metamorfose Ambulânte (solo) tabs Ultraje a Rigor - Ciúme
e-chords

Other versions:

tabs Banda Doulos - Tempo tabs Resgate - Tempo tabs Cláudio Henrique Tancredo - Tempo tabs Boogarins - Tempo tabs TV Cifras - Tempo De Criança - Dilermando Reis tabs Diante do Trono - Tempo de Festa
auto scroll beats size up size down change color hide chords drawings
tab show chords e-chords YouTube Clip e-chords hide all tabs e-chords go to top tab

share