Clark Beckham

James And Natalie

Clark Beckham

tabs

by  JOV-CORREA

save to print version add songbook text version e-mail correct tuner
chordsukulelecavacokeyboardtabbassdrumsharmonicaflute Guitar Pro
close

there isn't a video lesson for this song

chords

James And Natalie

	  		E|-------8-4---------------6-4-------------------------|-----------------------------------------------------| 
B|--3-5-------6-4-6-4-6---------4-2-5---4-5-7---9-4-1--|-----------------------------------------------------| 
G|----------------------------------------------------1|-----------------------------------------------------| 
D|-----------------------------------------------------|-----------------------------------------------------| 
A|-----------------------------------------------------|-----------------------------------------------------| 
E|-----------------------------------------------------|-----------------------------------------------------| 

E|----------8-4--7/6-4-9----8/6-8-6-4--4/0-------------------------------4-6-8--|----------------------------| 
B|--3-5---------------------------------------------3-5--6p5-6p5--4-2-3---------|----------------------------| 
G|------------------------------------------------------------------------------|----------------------------| 
D|------------------------------------------------------------------------------|----------------------------| 
A|------------------------------------------------------------------------------|----------------------------| 
E|------------------------------------------------------------------------------|----------------------------| 
  

************************************ 

| /  Slide up 
| p  Pull-off 

************************************ 
		  

auto scroll beats size up size down change color hide chords drawings
tab show chords e-chords YouTube Clip e-chords hide all tabs e-chords go to top tab

share