Clarence Carter

Strokin

Clarence Carter

tabs

by  MARCNAGEL

save to print version add songbook text version e-mail correct tuner
chordsukulelecavacokeyboardtabbassdrumsharmonicaflute Guitar Pro
close

there isn't a video lesson for this song

chords

Strokin

	  		

Intro: 
"I be Strokin'" 
e|-----10---------------------------------| 
B|-----10------------------12-------------| 
G|-----11------------------12-------------| 
D|-------------------------12-------------| x5 
A|----------------------------------------| 
E|----------------------------------------| 
  1    2    3    4    1    2    3    4     

verse 1: 
"lemme ask you something" 
e|----------10----------------------------| 
B|----------10------------------12--------| 
G|------------------------------12--------| 
D|-------------------------7s9--12--------| x12 
A|-----7s9------------10-10---------------|  
E|10-10-----------------------------------| 
  1    2    3    4    1    2    3    4        

Chorus: 
"I be Strokin'" 
e|-----10---------------------------------| 
B|-----10------------------12-------------| 
G|-----11------------------12-------------| 
D|-------------------------12-------------| x5 
A|----------------------------------------| 
E|----------------------------------------| 
  1    2    3    4    1    2    3    4     

Just alternate those two parts for the rest of the song 

************************************ 

| /   slide up 
| \   slide down 
| h   hammer-on 
| p   pull-off 
| ~   vibrato 
| +   harmonic 
| x   Mute note 
| b   Bend 
| pb  Pre-bend 
| br  Bend release 
| pbr Pre-bend release 
| brb Bend release bend 

************************************ 
		  

See also:

tabs OMD - Enola Gay tabs Santana e Rob Thomas - Smooth tabs Miley Cyrus - Butterfly Fly Away tabs Eric Johnson - Cliffs of Dover tabs Eric Johnson - SRV tabs India Arie - Get it together
e-chords

Other versions:

tabs Clarence Carter - Strokin
auto scroll beats size up size down change color hide chords drawings
tab show chords e-chords YouTube Clip e-chords hide all tabs e-chords go to top tab

share