Circa Survive

Fever Dreams

Circa Survive

tabs nolevel nolevel

by  VICTBORGES

save to print version add songbook text version e-mail correct tuner
chordsukulelecavacokeyboardtabbassdrumsharmonicaflute Guitar Pro
close

there isn't a video lesson for this song

chords

Fever Dreams

	  		

Tuning: Standard EADGBe 
The chords are a bit hard to strum as the speed goes acccordingly 
in the song, but you'll get the hang of it. 

If anything is inaccurate or wrong, etc., send me an email! 

*Strum fast, loosely and aggressively in the intro* 

PRE-INTRO (x2) 
e|-5-5-x-x--5-5-x-x--5-5-x-x--5-5-5-5--5-5-x-x--5-5-x-x--5-5-x-x--5-5-5-5--| 
B|-5-5-x-x--5-5-x-x--5-5-x-x--5-5-5-5--5-5-x-x--5-5-x-x--5-5-x-x--5-5-5-5--| 
G|-5-5-x-x--5-5-x-x--5-5-x-x--5-5-5-5--5-5-x-x--5-5-x-x--5-5-x-x--5-5-5-5--| 
D|-7-7-x-x--7-7-x-x--7-7-x-x--7-7-7-7--7-7-x-x--7-7-x-x--7-7-x-x--7-7-7-7--| 
A|-7-7-x-x--7-7-x-x--7-7-x-x--7-7-7-7--7-7-x-x--7-7-x-x--7-7-x-x--7-7-7-7--| 
E|-5-5-x-x--5-5-x-x--5-5-x-x--5-5-0-0--5-5-x-x--5-5-x-x--5-5-x-x--5-5-0-0--| 

INTRO (x2) 
e|-5-5-x-x--5-5-x-x--5-5-x-x--5-5-5-5--5-5-x-x--5-5-x-x--5-5-x-x--5-5-5-5--| 
B|-5-5-x-x--5-5-x-x--5-5-x-x--5-5-5-5--5-5-x-x--5-5-x-x--5-5-x-x--5-5-5-5--| 
G|-5-5-x-x--5-5-x-x--5-5-x-x--5-5-5-5--5-5-x-x--5-5-x-x--5-5-x-x--5-5-5-5--| 
D|-7-7-x-x--7-7-x-x--7-7-x-x--7-7-7-7--7-7-x-x--7-7-x-x--7-7-x-x--7-7-7-7--| 
A|-7-7-x-x--7-7-x-x--7-7-x-x--7-7-7-7--7-7-x-x--7-7-x-x--7-7-x-x--7-7-7-7--| 
E|-5-5-x-x--5-5-x-x--5-5-x-x--5-5-0-0--5-5-x-x--5-5-x-x--5-5-x-x--5-5-0-0--| 
Sinking into my awareness 

e|-5-5-x-x--5-5-x-x--5-5-x-x--5-5-5-5--3-3-x-x--3-3-x-x--10-10-x-x--10-10-x-x--| 
B|-5-5-x-x--5-5-x-x--5-5-x-x--5-5-5-5--3-3-x-x--3-3-x-x--10-10-x-x--10-10-x-x--| 
G|-5-5-x-x--5-5-x-x--5-5-x-x--5-5-5-5--3-3-x-x--3-3-x-x--10-10-x-x--10-10-x-x--| 
D|-7-7-x-x--7-7-x-x--7-7-x-x--7-7-7-7--5-5-x-x--5-5-x-x--12-12-x-x--12-12-x-x--| 
A|-7-7-x-x--7-7-x-x--7-7-x-x--7-7-7-7--5-5-x-x--5-5-x-x--12-12-x-x--12-12-x-x--| 
E|-5-5-x-x--5-5-x-x--5-5-x-x--5-5-0-0--3-3-x-x--3-3-x-x--10-10-x-x--10-10-x-x--| 
Realizing what's been done, I've 

e|-8-8-x-x--8-8-x-x--8-8-x-x--8-8-8-8--8-8-x-x--8-8-x-x--8-8-x-x--8-8-8-8---| 
B|-8-8-x-x--8-8-x-x--8-8-x-x--8-8-8-8--8-8-x-x--8-8-x-x--8-8-x-x--8-8-8-8---| 
G|-8-8-x-x--8-8-x-x--8-8-x-x--8-8-8-8--8-8-x-x--8-8-x-x--8-8-x-x--8-8-8-8---| 
D|-1010x-x--1010x-x--1010x-x--10101010-1010x-x--1010x-x--1010x-x--10101010--| 
A|-1010x-x--1010x-x--1010x-x--10101010-1010x-x--1010x-x--1010x-x--10101010--| 
E|-8-8-x-x--8-8-x-x--8-8-x-x--8-8-8-8--8-8-x-x--8-8-x-x--8-8-x-x--8-8-8-8---| 
taken a life and mine for granted 

e|-8-8-x-x--8-8-x-x--8-8-x-x--8-8-8-8--10-10-10-10--10-10-10-10--10-10-10-10--10-10-10-10-| 
B|-8-8-x-x--8-8-x-x--8-8-x-x--8-8-8-8--10-10-10-10--10-10-10-10--10-10-10-10--10-10-10-10-| 
G|-8-8-x-x--8-8-x-x--8-8-x-x--8-8-8-8--10-10-10-10--10-10-10-10--10-10-10-10--10-10-10-10-| 
D|-1010x-x--1010x-x--1010x-x--10101010-12-12-12-12--12-12-12-12--12-12-12-12--12-12-12-12-| 
A|-1010x-x--1010x-x--1010x-x--10101010-12-12-12-12--12-12-12-12--12-12-12-12--12-12-12-12-| 
E|-8-8-x-x--8-8-x-x--8-8-x-x--8-8-8-8--10-10-10-10--10-10-10-10--10-10-10-10--10-10-10-10-| 
Neither planned or in passion....... 

Chorus 
e|---------------------------------------------------------------------------| 
B|---------------------------------------------------------------------------| 
G|---------------------------------------------------------------------------| 
D|-----7-----5---------------------10-----10-0-------------------------------| 
A|---7-----5---------------------10-----10-----------------------------------| 
E|-5-----3-----0---------------8------8--------------------------------------| 
All the things I should've done....... 

BRIDGE (continuous strumming) 
e|---------------------------------------------------------------------------| 
B|---------------------------------------------------------------------------| 
G|-17\16-\12-------------------12/14-\9--------------------------------------| 
D|---------------------------------------------------------------------------| 
A|-15\14-\10-------------------10/12-\7--------------------------------------| 
E|---------------------------------------------------------------------------| 
All my life......... Passing......... 
You were alive and just arriving....... etc. 


Basically just get those little licks down and you have the whole song 
down in your arsenal. Have fun, cheers! 


************************************ 

| /   slide up 
| \   slide down 
| h   hammer-on 
| p   pull-off 
| ~   vibrato 
| +   harmonic 
| x   Mute note 
| b   Bend 
| pb  Pre-bend 
| br  Bend release 
| pbr Pre-bend release 
| brb Bend release bend 

************************************ 
		  

See also:

tabs Red Hot Chili Peppers - Under The Bridge (ver. 2) tabs Good Charlotte - Hold On tabs Ben Harper - Diamonds on inside tabs Good Charlotte - Predictable tabs Paramore - Misery Business tabs Red Hot Chili Peppers - Scar Tissue (ver. 4)
e-chords

Other versions:

tabs Dio - Fever Dreams tabs Circa Survive - Fever Dreams
auto scroll beats size up size down change color hide chords drawings
tab show chords e-chords YouTube Clip e-chords hide all tabs e-chords go to top tab

share with facebook