Circa Survive

Bad Heart

Circa Survive

tabs nolevel nolevel

by  EDUCASTILHO

save to print version add songbook text version e-mail correct tuner
chordsukulelecavacokeyboardtabbassdrumsharmonicaflute Guitar Pro
close

there isn't a video lesson for this song

chords

Bad Heart

	  		
Intro Bass 
e|-------------------------------| 
B|-------------------------------| 
G|-------------------------------| 
D|-------4-----------------------| 
A|-----5-------------------------| 
E|-3/5-----?---------------------| 


? = I couldn't get my guitar to get that lower sound from the bass in the song lol. 



Intro Guitar (goes with bass) ( not exact but sounds kinda OK) 
e|--3/5------------3/5-------------| X2 
B|------2/3------------7/8---------| 
G|---------------------------------| 
D|---------------------------------| 
A|---------------------------------| 
E|---------------------------------| 

"If you change your mind, and decide you want me" 

e|----5-----5-------------0------------| 
B|------7-----7---7/2---2--------3-----| 
G|--7-----7-----7-----2--------4---4---| 
D|---------------------------5-------5-| 
A|-------------------------------------| 
E|-------------------------------------| 


Just play this part below for most of the song. 
e|-----5-----5------------0--------------| X3 
B|---7---7-----7--------2--------3-------| 
G|-7-------7-----7/2--2--------4---4-----| 
D|---------------------------5-------5---| 
A|---------------------------------------| 
E|---------------------------------------| 

2nd part ( Not too sure about this one, but I can kinda make out a few notes) 
 Also i'm sure you can time it right as well. 

e|-----------------------------------------------------------| 
B|--------2~~--------------------------2~~-------------------| 
G|---3-------3~~-------------------3------3~~----------------| 
D|-4---4---------4h5p4~~----4h5p4----4--------4h5p4~~--------| 
A|-----------------------------------------------------------| 
E|-----------------------------------------------------------|  
		  

See also:

tabs Red Hot Chili Peppers - Under The Bridge (ver. 2) tabs Good Charlotte - Hold On tabs Ben Harper - Diamonds on inside tabs Good Charlotte - Predictable tabs Paramore - Misery Business tabs Red Hot Chili Peppers - Scar Tissue (ver. 4)
e-chords

Other versions:

tabs Circa Survive - Bad Heart
auto scroll beats size up size down change color hide chords drawings
tab show chords e-chords YouTube Clip e-chords hide all tabs e-chords go to top tab

share with facebook