Chris Pontius

home > Chris Pontius

Swamp Boogie Tab

Chris Pontius

Difficulty: nolevelnolevel

by adalgomes

tuner correct add songbook print version text version save to e-mail
chordsukulelecavacokeyboardtabbassdrumsharmonicsflute Guitar Pro
chords

Swamp Boogie

  		
Tuning: Standard 
 

Intro:  
|---------------|---------------|---------------|-------------------|\- | 
|---------------|---------------|---------------|-------------------|-- | 
|---------------|---------------|---------------|-------------------|-- | 
|---------------|---------------|---------------|-------------------|-- | 
|-8-8-8-8-8-8-8-|-8-8-8-8-8-8-8-|-4-4-4-4-4-4-4-|-3-3~~-3-3-3-3-3-<-|-- | 
|-6-6-(b9)6-6-6-(b9)|-6-6-(b9)6-6-6-(b9)|-2-0-2-0-2-0-0-|-0-1~~-1-1-1-1-1 
                                                                       > (x2) 
|---------------|---------------|---------------|-------------------|-- | 
|---------------|---------------|---------------|-------------------|-- | 
|---------------|---------------|---------------|-------------------|-- | 
|---------------|---------------|---------------|-------------------|-- | 
|-8-8-8-8-8-8-8-|-8-8-8-8-8-8-8-|-4-4-4-4-4-4-4-|-6~~-6-6-6-6-6-6-6-|-- | 
|-6-6-(b9)6-6-6-(b9)|-6-6-(b9)6-6-6-(b9)|-2-0-2-0-2-0-0-|-4~~-4-4-4-4-4-4-4---- | 

Verse: 
|---------------|---------------|---------------|-------------------|\- | 
|---------------|---------------|---------------|-------------------|-- | 
|---------------|---------------|---------------|-------------------|-- | 
|---------------|---------------|---------------|-------------------|-- | 
|-8-8-8-8-8-8-8-|-8-8-8-8-8-8-8-|-4-4-4-4-4-4-4-|-3-3~~-3-3-3-3-3-3-|-- | 
|-6-6-(b9)6-6-6-(b9)|-6-6-(b9)6-6-6-(b9)|-2-0-2-0-2-0-0-|-0-1~~-1-1-1-1-1-1-|-- | 
                                                                       > (x2) 
|---------------|---------------|---------------|-------------------|-- | 
|---------------|---------------|---------------|-------------------|-- | 
|---------------|---------------|---------------|-------------------|-- | 
|---------------|---------------|---------------|-------------------|-- | 
|-8-8-8-8-8-8-8-|-8-8-8-8-8-8-8-|-4-4-4-4-4-4-4-|-6~~-6-6-6-6-6-6-6-|-- | 
|-6-6-(b9)6-6-6-(b9)|-6-6-(b9)6-6-6-(b9)|-2-0-2-0-2-0-0-|-4~~-4-4-4-4-4-4-4---- | 

Chorus: 
|-----------------|--------------------|-----------------|-----------------|\- | 
|-----------------|--------------------|-----------------|-------------------- | 
|-----------------|--------------------|-----------------|-------------------- | 
|-6~~-6-8-6-6-6-8-|-8~~-8-10-8-8-8-10--|-5~~-5-7-5-5-5-7-|-6~~-6-8-6-6-6-8---- | 
|-4~~-4-4-4-4-4-4-|-6~~-6-6--6-6-6-6---|-3~~-3-3-3-3-3-3-|-4~~-4-4-4-4-4-4-|-- | (x3) 
|-----------------|--------------------|-----------------|-------------------- | 

Then play this: 
|-----------------|--------------------|-----------------| 
|-----------------|--------------------|-----------------| 
|-----------------|--------------------|-----------------| 
|-6~~-6-8-6-6-6-8-|-8~~-8-10-8-8-8-10--|-5~~-5-7-5-5-5-7-| 
|-4~~-4-4-4-4-4-4-|-6~~-6-6--6-6-6-6---|-3~~-3-3-3-3-3-3-| 
|-----------------|--------------------|-----------------| 

|-----------------|-----------------|\- | 
|-----------------|-------------------- | 
|-----------------|-------------------- | 
|-6-X-X-----------|-8-X-X-------------- | 
|-4-X-X-6~~-6-6~~-|-6-X-X-8~~-8-8~~-|-- | (x3) 
|-------4~~-4-4~~-|-------6~~-6-6~~---- | 

Then play this: 
|--------------|-----------------------| 
|--------------|-----------------------| 
|--------------|-----------------------| 
|-6~~--6-6-6-6-|-6-6-6-6-6-6-6-6-6-6-6-| 
|-4~~--4-4-4-4-|-4-4-4-4-4-4-4-4-4-4-4-| 
|--------------|-----------------------| 

|-----------------|-----------------|\- | 
|-----------------|-------------------- | 
|-----------------|-------------------- | 
|-6-X-X-----------|-8-X-X-------------- | 
|-4-X-X-6~~-6-6~~-|-6-X-X-8~~-8-8~~-|-- | (x3) 
|-------4~~-4-4~~-|-------6~~-6-6~~---- | 

Then play this: 
|--------------|-----------------------| 
|--------------|-----------------------| 
|--------------|-----------------------| 
|-6~~--4-4-4-4-|-6-6-6-6-6-6-6-6-6-6-6-| 
|-4~~--6-6-6-6-|-4-4-4-4-4-4-4-4-4-4-4-| 
|--------------|-----------------------| 

Repeat from verse. 

Guitar Solo: 
|---------------------|---------------------------|---------------------| 
|-9b12~~-12r(b9)(b9)6~~---|-9b12~~-12r(b9)(b9)6b8-(8)r6~~-|-11(b9)---(b9)11(b9)-----| 
|---------------------|---------------6b8-(8)r6~~-|------10--------10~~-| 
|---------------------|---------------------------|---------------------| 
|---------------------|---------------------------|---------------------| 
|---------------------|---------------------------|---------------------| 

|-----------------|-----------6----(b9)---(b9)5/9~~-| 
|-----------------|-------6-(b9)--9b12-9b12-5/9~~-| 
|-8/6-8-6-8/6-8~~-|---6-8-----------------------| 
|-----8-------8~~-|-8---------------------------| 
|-----------------|-8---------------------------| 
|-----------------|-----------------------------| 

*Chorus* 

*Verse* 

End strong on: 
|-----| 
|-----| 
|-----| 
|-8~~-| 
|-8~~-| 
|-6~~-| 

And hold it! 
	  

Search Paypal
auto scroll beats size up size down change color hide chords drawings
tab show chords e-chords YouTube Clip e-chords hide all tabs e-chords go to top tab