Chris Impelliteri

Somewhere over the rainbow

Chris Impelliteri

tabs Beginner beginner

by  VALLIM GUITAR

save to print version add songbook text version e-mail correct tuner
chordsukulelecavacokeyboardtabbassdrumsharmonicaflute Guitar Pro
close

there isn't a video lesson for this song

chords

Somewhere over the rainbow

	  		Gtr I (E A D G B E) - 'guitar' 
 
 
  Q=100 
 4/4 
  Gtr I 
  H     Q   Q     Q   +S   S S  S  Q   E.  S 
|------12--14--|-----------------------------| 
|-5------------|-16--(16)------14-16--17-----| 
|--------------|----------16-----------------| 
|--------------|-----------------------------| 
|--------------|--------------------------19-| 
|--------------|-----------------------------| 
 
 
   +H      Q   Q     H     +Q..    S 
|-----------------|-------------------| 
|-------------17--|-------------------| 
|---------18------|-16----(16)--------| 
|-----------------|---------------14--| 
|-(19)------------|---------------17--| 
|-----------------|-------------------| 
 
 
   Q  Q   H      Q  E E Q   Q     Q   E  E  Q   E  S  S    Q  Q   Q   E.  S 
|--------------|---------------|---------------16-------|--------------------| 
|--------10----|-9----7-9--10--|------------------------|--------------------| 
|--------------|----9----------|-11---------------------|--------------------| 
|-12-----------|---------------|-----13-14-16-----16-16-|-14-----13------14--| 
|-16-----------|---------------|------------------19-19-|-18---------14------| 
|--------------|---------------|------------------------|--------------------| 
 
 
   +H      E.  S  +E.  S    Q   +S   S S  S  Q   E.  S    +H      Q   E  S  S 
|---------12--14-(14)-12-|-11--(11)--------------------|----------------------| 
|------------------------|----------12---14-16--17-----|-------------17-------| 
|------------------------|-----------------------------|---------18-----------| 
|-(14)-------------------|-----------------------------|-------------------16-| 
|------------------------|--------------------------19-|-(19)-----------16-19-| 
|------------------------|-----------------------------|----------------19----| 
 
 
   S  S  S  S  S  S  S  S  S  E. E S  S 
|-------17-19-------17-16---------------| 
|----17-21-------17-21----17------------| 
|-16-20-------16-20-------20-18---------| 
|-19-------16-19-------------21---------| 
|----------19------------------------19-| 
|------------------------------------22-| 
 
 
   Q  Q   H       Q   S  S S  S  Q   Q 
|--------------|------------------------| 
|--------------|------------------------| 
|--------------|------------------------| 
|--------19----|-18---------------------| 
|-17-----------|-----19-19---21-23--24--| 
|-21-----------|------------------------| 
 
 
   Q   E  E  Q   E  S  S    Q  Q   Q   E.  S 
|------------------------|-------------------| 
|---------------21-------|-------------------| 
|------------------------|-------------------| 
|------------------------|----------------21-| 
|-21--------21-----21-21-|-19-----18---------| 
|-----23-24--------24-24-|-23---------19-----| 
 
 
   E.  S  E.  S  E.  S  E.  S    E.  S  E.  S  E.  S  E.  S 
|-----------------------------|------------------------------| 
|-----------------------------|------------------------------| 
|-----------------------------|------------------------------| 
|-----21-----21-----21-----21-|-19--21-19--21-19--21-19--21--| 
|-23-----23--21-23-----23--21-|------------21----------------| 
|-----------------------------|------------------------------| 
 
 
   H     E E  S E  S    E.  S  E.  S  E.  S  E.  S 
|--------------------|-----------------------------| 
|--------------------|-----------------------------| 
|-------20---20------|-----------------------------| 
|-23----23--------21-|-----21-----21-----21-----21-| 
|--------------------|-23--21-23-----23-----23-----| 
|--------------------|-----------------------------| 
 
 
   E.  S  E.  S  E.  S  E.  S    H     H 
|-----------------------------|-------14----| 
|-----------------------------|-16----------| 
|-----18-----18-----18-----18-|-------------| 
|-20-----20--18-20-----20-----|-------------| 
|-----------------------------|-------------| 
|-----------------------------|-------------| 
 
 
   +H     S S E Q     H     Q   Q 
|-(14)-------------|-------12--14--| 
|------------------|---------------| 
|------------------|---------------| 
|---------0--------|-14------------| 
|---------0--------|---------------| 
|---------0--------|---------------| 
 
 
   Q   +S   S S  S  Q   E.  S    +H      Q   Q 
|-----------------------------|------------------| 
|-16--(16)------14-16--17-----|-------------17---| 
|----------16-----------------|---------18-------| 
|-----------------------------|------------------| 
|--------------------------19-|-(19)-------------| 
|-----------------------------|------------------| 
 
 
   H     +Q..    S    Q  Q   H 
|------------------|--------------| 
|------------------|--------10----| 
|-16----(16)-------|--------------| 
|---------------14-|-12-----------| 
|---------------17-|-16-----------| 
|------------------|--------------| 
 
 
  Q  +S  S S S Q   Q     Q   +S   S S  S  Q   E  S  S 
|---------------------|----------------------16--------| 
|-9--(9)-----7-9--10--|--------------------------------| 
|--------9------------|-11--(11)-----------------------| 
|---------------------|----------13---14-16-----16-16--| 
|---------------------|-------------------------19-19--| 
|---------------------|--------------------------------| 
 
 
   Q  Q   Q   Q     H     Q   Q 
|----------------|-------12--19--| 
|----------------|---------------| 
|----------------|---------------| 
|-14-----13------|-14------------| 
|-18---------14--|---------------| 
|----------------|---------------| 
 
 
   Q   +S   S S  S  Q   E.  S    +H      Q   Q 
|-----------------------------|-----------------| 
|-----------------------------|-------------17--| 
|-20--(20)---------20--21-----|---------18------| 
|----------21---23------------|-----------------| 
|--------------------------19-|-(19)------------| 
|-----------------------------|-----------------| 
 
 
   H     +Q..    S    Q  Q   H 
|------------------|--------------| 
|------------------|--------10----| 
|-16----(16)-------|--------------| 
|---------------14-|-12-----------| 
|---------------17-|-16-----------| 
|------------------|--------------| 
 
 
  Q  +S  S S S Q   Q     Q   +S   S S  S  Q   E  S  S 
|---------------------|----------------------16--------| 
|-9--(9)-----7-9--10--|--------------------------------| 
|--------9------------|-11--(11)-----------------------| 
|---------------------|----------13---14-16-----16-16--| 
|---------------------|-------------------------19-19--| 
|---------------------|--------------------------------| 
 
 
   Q  Q   Q   Q     Q   +S   S  S  S  S  S  S  S  E E 
|----------------|-12--(12)----------19----21-23-24---| 
|----------------|----------------12-21-17-24---------| 
|----------------|----------------13----20------------| 
|-14-----13------|------------------------------------| 
|-18---------14--|-------------14---------------------| 
|----------------|----------12-15---------------------| 
 
 
   Q   +S   S S  S  Q   E.  S 
|-23--(23)------21-21--21--21-| 
|----------24-----------------| 
|-----------------------------| 
|-----------------------------| 
|-----------------------------| 
|-----------------------------| 
 
 
   Q   +S   S  S  S  S  S  S  S  S  S  S  S 
|-21--(21)----------------19----11----19----| 
|----------------------21----12-14-21----21-| 
|-------------------20-23----16----23----23-| 
|----------------19-23----------------------| 
|-------------19-23-------------------------| 
|----------19-23----------------------------| 
 
 
   S  S  S  S  S S E  Q   +S   S  S  S    E.  S  +S   E.  E.  S  +S   S  S  S 
|--------------------------------------|-----------------------------------11-| 
|-------------16-----17--(17)----------|------------------------------------9-| 
|-21-18-------18-----------------------|-----21-(21)-----20----------21-------| 
|-23-21-19-18--------------------------|--------------------------------------| 
|-------23-21--------------------19-21-|-21----------21------21-(21)----23----| 
|-----------------------------19----24-|--------------------------------------| 
 
 
  S S E +E  E +E  E +E  S S   E E Q  Q  S S S S   Q  Q  Q  S S S S 
|-9---7-(7)-----------------|-------------------|------------------| 
|---9-------9-(9)-7-(7)-5-7-|-5---4-------------|-2--5--4----------| 
|-------------------------9-|-8------4----4-----|----------4-----4-| 
|---------------------------|-----------4-----4-|------------4-----| 
|---------------------------|-------------------|------------------| 
|---------------------------|-------------------|------------------| 
 
 
  Q  S S S S  S  S  S  S  S  S  S  S    S  S  S  S  S  E.  Q   +S  S S  S 
|----------3--8----17----------17----|-------17-------20--19--(19)---0-12--| 
|-5--------7-12-19----------19-------|----19----19-17----------------0-12--| 
|----0-4-4------21-------17-21-------|-17-21----21-------------------0-12--| 
|----4-4-7------------17-21-------17-|-21--------------------------2-------| 
|------7--------------21----------21-|-------------------------------------| 
|------------------------------------|-------------------------------------| 
 
 
   S  S  S  S  S  S  S  S  Q  Q     E.  S  S  S  S  S  S  S  S  S  S  S  S  S 
|----------------19-19-19--------|-21-----20-20-20----------19-----------------| 
|-24-20-------20-20-17-20-17-----|-----22----22----19-20-19-22----------22-19--| 
|-24-21-------21-21----21-19-----|--------------17-21-21-21----------21-24-21--| 
|-------21-----------------------|-----------------22-23-------19-21-24--------| 
|-------22-19--------------------|-----------------------------19-24-----------| 
|----------19--------------------|---------------------------------------------| 
 
 
   S  S  S  S  E E S  S S S  S  S  S  S 
|-------------12----------7-12----------| 
|--------8-10-10----------8----12----12-| 
|-17----12-14-----------9------12----12-| 
|-21-19--------------10-----------14----| 
|----22---------------------------------| 
|---------------------------------------| 
 
 
   S  S  S  S  S  S  S  S  S  S  S  S  +Q 
|-------------------------------------------| 
|-13----------------------------------------| 
|----16----14-------------------------------| 
|----14-14-17-16-17-16-14-------------------| 
|----------------19----17-15-17-15----------| 
|----------------------------19----17-(17)--| 
 
 
   Q   S S S S  S  S  S S  S  S  S  S 
|------------2----12----3--8----17----| 
|----------1-5-12-15-22-7-12-19----19-| 
|--------2---4-14----24------21----21-| 
|--------5----------------------------| 
|-------------------------------------| 
|-19--19------------------------------| 
 
 
   S  S S  S S  S  S  S  S  S  S  S  E E    H     Q   Q 
|----19---19---------17-------17----21---|----------------| 
|--------------18-------19-17-20-19-20---|-------17--19---| 
|-19-----------21-19----21-18----21------|----------------| 
|-21-19-----------22---------------------|----------------| 
|----------------------------------------|-19-------------| 
|----------------------------------------|----------------| 
 
 
   Q   +S   S S  S  Q   E.  S    +H      Q   Q 
|-----------------------------|-----------------| 
|-----------------------------|-------------17--| 
|-20--(20)---------20--21-----|---------18------| 
|----------21---23------------|-----------------| 
|--------------------------19-|-(19)------------| 
|-----------------------------|-----------------| 
 
 
   H     +Q..    S    Q  Q   H 
|------------------|--------------| 
|------------------|--------10----| 
|-16----(16)-------|--------------| 
|---------------14-|-12-----------| 
|---------------17-|-16-----------| 
|------------------|--------------| 
 
 
  Q  +S  S S S Q   Q     Q   +S   S S  S  Q   E  S  S 
|---------------------|-14--(14)-------------16-------| 
|-9--(9)-----7-9--10--|-------------------------------| 
|--------9------------|-------------------------------| 
|---------------------|----------13---14-16-----16-16-| 
|---------------------|-------------------------19-19-| 
|---------------------|-------------------------------| 
 
 
   Q  Q   Q   Q     H     Q   Q 
|----------------|-------12--14---| 
|----------------|----------------| 
|----------------|----------------| 
|-14-----13------|-14-------------| 
|-18---------14--|----------------| 
|----------------|----------------| 
 
 
   Q   +S   S S  S  Q   E.  S    +H      Q   Q 
|-----------------------------|-----------------| 
|-16--(16)------14-16--17-----|-------------17--| 
|----------16-----------------|---------18------| 
|-----------------------------|-----------------| 
|--------------------------19-|-(19)------------| 
|-----------------------------|-----------------| 
 
 
   H     +Q..    S    Q  Q   H 
|------------------|--------------| 
|------------------|--------10----| 
|-16----(16)-------|--------------| 
|---------------14-|-12-----------| 
|---------------17-|-16-----------| 
|------------------|--------------| 
 
 
  Q  +S  S S S Q   Q     Q   +S   S S  S  Q   E  S  S    Q  Q   Q   S  S S  S 
|---------------------|-14--(14)-------------16-------|-----------------------| 
|-9--(9)-----7-9--10--|-------------------------------|-----------------------| 
|--------9------------|-------------------------------|-----------------------| 
|---------------------|----------13---14-16-----16-16-|-14-----13----------14-| 
|---------------------|-------------------------19-19-|-18---------14---------| 
|---------------------|-------------------------------|---------------16------| 
 
 
  S  S S  S  S S E S  S  S  S  S  E.    S  S  S  S  S  S  S  S S S S S +Q 
|------------------------------------|-------------------------9------------| 
|------------------------------------|----------------11--9--8-8-7-7-7-(7)--| 
|------------------------------------|----18-16-15-13-13-12-11---9----------| 
|---16---16-14-------------16-16-16--|-18-----------------------------------| 
|--------19----------14-16-19--------|--------------------------------------| 
|------------------------------------|--------------------------------------| 
 
 
  S S S S S S S S E. S Q    E S S S S S S Q  S S E 
|-------------------------|------------------------| 
|-----5-7---7-7-5-4--5-5--|---5--------------2-----| 
|---6---9-----------------|-----6-4-4-----4--------| 
|-------------------------|---------6-6-4----------| 
|-------------------------|-------------7----------| 
|-------------------------|------------------------| 
 
 
  Q  +S  S S S S S S S S S E 
|-7--(7)-9-7-6-6-4-4-9---7---| 
|--------------9-8-7-8-7-8-7-| 
|----------------------9-----| 
|----------------------------| 
|----------------------------| 
|----------------------------| 
 
 
  +E  E S S S S S E. +S  E S 
|----------------------------| 
|-(7)-----5---4------------2-| 
|---------------4-4--(4)-----| 
|-----------------4--(4)-----| 
|----------------------------| 
|----------------------------| 
 
 
  +S  S S S +S   E.  E.  S S E.   E E +S  S S S H 
|-----2---4-(4)-12------11-9-7--|-7------------------| 
|-(2)-5-5----------------9------|---9-(9)---7-5-5----| 
|-------------------11----------|---------9---8------| 
|-------------------------------|--------------------| 
|-------------------------------|--------------------| 
|-------------------------------|--------------------| 
 
 
   S  S  S  S S  S  S  S  S  S  S  S  S  S  S  S 
|-12-15-15-15---------------14-17----------15-17-| 
|----17----17------------17-17-19-------17-19----| 
|------------------------16----------16-19-------| 
|---------------------17----------17-19----------| 
|---------------14-15-19----------19-------------| 
|---------------17-19----------------------------| 
 
 
   S  S  S  S  S  S  S S  Q.   S S 
|----------15-------19---19------7-| 
|-------15-19-19-17-19-----------8-| 
|----16-17----23-19------------0-9-| 
|-17-19------------------------2-9-| 
|-19-------------------------------| 
|----------------------------------| 
 
 
   S  S S S S  S  S  S  Q   E.  S 
|-------3---3-15-19--------19--19-| 
|-24----5---5-17-20-17-17---------| 
|-24-21-4-0-4-16----21------------| 
|----21---2-----------------------| 
|---------------------------------| 
|---------------------------------| 
 
 
   S  S  S  S  S  S  S  S  S  S S  S  S  S  S  S 
|-17-19-19-19-19-19----------17------------17----| 
|----20-19-22----20-20----17-20---------17-20-19-| 
|-------------------23-21-19---------16-19----21-| 
|----------------------24-20------16-19----------| 
|---------------------------------19-------------| 
|------------------------------------------------| 
 
 
   S  S  S  S  +Q    +Q    +S   S  S  S 
|---------------------------------------| 
|-15------------------------------------| 
|-16------------------------------------| 
|-19-17-19-21-(21)--(21)--(21)-------21-| 
|----21-22------------------------19-22-| 
|------------------------------20-------| 
 
 
   S  S  S  S  S  S  S  S  S E S S S S S 
|----------------------------------------| 
|----------------------------0---------1-| 
|-21-------------------------4---4---2-4-| 
|----21----------------------------4-5---| 
|----24-22-21-22----21-19----------------| 
|----------------24-22----20-------------| 
 
 
  S  S  S  S  S  S  S  S  S  S  S  S  S  S  S  S 
|-2----12----------------17----------15-17-------| 
|-5-12-15-22-22-------19----------15-19----------| 
|---14----24-------19-21-------16-17----------16-| 
|---------------19-22-------16-19----------17-19-| 
|------------21-22----------19-------------21----| 
|------------24----------------------------------| 
 
 
   S  S  S  S  S  E.  S  S  S  S  S  E S    H     Q   Q 
|----17-17-------19--19-20-20-20-19-20---|---------------| 
|-17-20-19-17-17--------24----24----24---|-------17--19--| 
|-19-------19----------------------------|---------------| 
|----------------------------------------|---------------| 
|----------------------------------------|-19------------| 
|----------------------------------------|---------------| 
 
 
   Q   +S   S S  S  Q   E.  S    +H      Q   Q 
|-----------------------------|-----------------| 
|-----------------------------|-------------17--| 
|-20--(20)---------20--21-----|---------18------| 
|----------21---23------------|-----------------| 
|--------------------------19-|-(19)------------| 
|-----------------------------|-----------------| 
 
 
   H     +Q..    S    Q  Q   H 
|------------------|--------------| 
|------------------|--------10----| 
|-16----(16)-------|--------------| 
|---------------14-|-12-----------| 
|---------------17-|-16-----------| 
|------------------|--------------| 
 
 
  Q  +S  S S S Q   Q     Q   +S   S S  S  Q   E  S  S 
|---------------------|----------------------16-------| 
|-9--(9)-----7-9--10--|-------------------------------| 
|--------9------------|-11--(11)----------------------| 
|---------------------|----------13---14-16-----16-16-| 
|---------------------|-------------------------19-19-| 
|---------------------|-------------------------------| 
 
 
   Q  Q   Q   Q     H     Q   Q 
|----------------|-------12--14---| 
|----------------|----------------| 
|----------------|----------------| 
|-14-----13------|-14-------------| 
|-18---------14--|----------------| 
|----------------|----------------| 
 
 
   Q   +S   S S  S  Q   E.  S    +H      Q   Q 
|-----------------------------|-----------------| 
|-16--(16)------14-16--17-----|-------------17--| 
|----------16-----------------|---------18------| 
|-----------------------------|-----------------| 
|--------------------------19-|-(19)------------| 
|-----------------------------|-----------------| 
 
 
   H     +Q..    S    Q  Q   H 
|------------------|--------------| 
|------------------|--------10----| 
|-16----(16)-------|--------------| 
|---------------14-|-12-----------| 
|---------------17-|-16-----------| 
|------------------|--------------| 
 
 
                        Q=92     Q=89 Q=8Q=81Q=7Q=77    Q=52         Q=50 
  Q  +S  S S S Q   Q     Q   +S   S S  S  Q   E  S  S    H    H      W 
|---------------------|----------------------16-------|------------|------*| 
|-9--(9)-----7-9--10--|-------------------------------|------------|------*| 
|--------9------------|-11--(11)----------------------|------------|------*| 
|---------------------|----------13---14-16-----16-16-|-14---------|------*| 
|---------------------|-------------------------19-19-|-18---------|------*| 
|---------------------|-------------------------------|------------|------*| 
 
 
 
 

		  

Full key step upFull key step up
Half key step upHalf key step up
Half key step downHalf key step down
Full key step downFull key step down
auto scroll beats size up size down change color hide chords drawings
tab show chords e-chords YouTube Clip e-chords hide all tabs e-chords go to top tab

share