Chris Cornell

Sunshower (live)

Chris Cornell

tabs

by  RENEJUNIOR

save to print version add songbook text version e-mail correct tuner
chordsukulelecavacokeyboardtabbassdrumsharmonicaflute Guitar Pro
close

there isn't a video lesson for this song

chords

Sunshower (live)

	  		

Tuning:  Drop D 

Tuning: Standard 


Intro 

E|-2-----0-----0-------------------------0--|--0----0-----0-----------| 
B|-3-----------------3-------------3-----3--|--3----3-----3-----------| 
G|-2-----------------------0h(2)---------0--|--0----0-----0-----------| 
D|-0-------------------------------------0--|--0----0-----0-----------| 
A|---------------------------------------2--|-------------1-----------| 
D|------------------------------------------|--3----2-----------------| 


E |-------------------------------------------------| 
B |-2-----------------2h(3)----3--3-----3--3--3--3--| 
G |-2--------2--------2--------2--2-----2--2--2--2--| 
D |-2--------2--------2h(3)----3--3-----3--3--0-----| 
A |-0-----------0-----0-----------0-----0-----------| 
D |-------------------------------------------------| 



Verse 

   D                                  C Add9       C Add9 
E|-2-----0-----0-------------------------3--|----------3--------------| 
B|-3-----------------3-------------3-----3--|----------3--------------| 
G|-2-----------------------0h(2)---------0--|----------0--------------| 
D|-0-------------------------------------2--|----------2--------------| 
A|---------------------------------------3--|----------3--------------| 
D|------------------------------------------|-------------------------| 


E|-2-----0-----0-------------------------0--|----------0--------------| 
B|-3-----------------3-------------3-----3--|----------3--------------| 
G|-2-----------------------0h(2)---------0--|----------0--------------| 
D|-0-------------------------------------0--|----------0--------------| 
A|---------------------------------------2--|----------1--------------| 
D|------------------------------------------|-------------------------| 



E|-2-----0-----0-------------------------0--|--0----0-----0-----------| 
B|-3-----------------3-------------3-----3--|--3----3-----3-----------| 
G|-2-----------------------0h(2)---------0--|--0----0-----0-----------| 
D|-0-------------------------------------0--|--0----0-----0-----------| 
A|---------------------------------------2--|-------------1-----------| 
D|------------------------------------------|--3----2-----------------| 

                     A- Asus4                           Bm 
E|-------------------------------------------------|---2-------------| 
B|-2-----------------2h(3)----3--3-----3--3--3--3--|---3-------------| 
G|-2--------2--------2--------2--2-----2--2--2--2--|---4-------------| 
D|-2--------2--------2h(3)----3--3-----3--3--0-----|---4-------------| 
A|-0-----------0-----0-----------0-----0-----------|---2-------------| 
D|-------------------------------------------------|-----------------| 




Chorus 

           D       F#m       Bm       E   Esus4 
E|---------2--------2--------2---0--------------| 
B|---------3--------2--------3---3--------------| 
G|---------2--------2--------4---4----1---2--1--|   Repeat  3x 
D|------------------4--------4---4----2---2--2--| 
A|------------------4--------2--------2---2--2--| 
D|------------------4---------------------------| 

           D      C Add9      G       Bb      A 
E|---------2--------3--------------------------------| 
B|---------3--------3--------------------------------| 
G|---------2--------0--------------------------------|    
D|------------------2----------5-------8------7------| 
A|------------------3----------5-------8------7------| 
D|-----------------------------5-------8------7------| 


After each Chorus  
                                                         Fill 
E|--14-------0--------0--------0--------0-----0----|     |-------------------| 
B|--15-------15-------15-------14-------12----10---|     |----2-3-2-0-2-0-2--| 
G|--14-------14-------0--------0--------0-----0----|     |----------------2--| 
D|--0--------0--------0--------0--------0-----0----|     |----------------2--| 
A|-------------------------------------------------|     |-------------------| 
D|-------------------------------------------------|     |-------------------| 


Outro 

Based on Octaves 
                
E|---------------------| 
B|---------------------| 
G|---5\7---9---11------|  repeat 3x 
D|---------------------| 
A|---3\5---7---9-------| 
D|---------------------| 

E|----------------------------------------------| 
B|----------------------------------------------| 
G|---------------11----------------7--7--5----4-| 
D|---------9-----------9-----------5-----3----2-| 
A|--9------9-----10----9-----8-----5-----3----2-| 
D|--10-----9-----8-----9-----6-----5--4--3----2-| 

E|---------------------||----------------------------------------------| 
B|---------------------||----------------------------------------------| 
G|---5\7---9---11------||---------------11----------------7--7--5----4-|   
D|---------------------||---------9-----------9-----------5-----3----2-| 
A|---3\5---7---9-------||--9------9-----10----9-----8-----5-----3----2-| 
D|---------------------||--10-----9-----8-----9-----6-----5--4--3----2-| 
            


    Bm    C      G       F    E 
E|---2---------------------------------| 
B|---3----1----------------------------| 
G|---4-----------7---7----5----4-------|  repeat  
D|---4----2------5--------3----2-------| 
A|---2----3------5--------3----2-------| 
D|---------------5---4----3----2-------| 
		  

Full key step upFull key step up
Half key step upHalf key step up
Half key step downHalf key step down
Full key step downFull key step down
hide glossary

See also:

tabs Deep Purple - Smoke On The Water (Easy Intro) tabs Eagles - Take It Easy tabs Billy Idol - White Wedding tabs Status Quo - Whatever you want tabs Dire Straits - Sultans of Swing tabs Dire Straits - Brothers in Arms
e-chords

Other versions:

tabs Chris Cornell - Sunshower (live)
auto scroll beats size up size down change color hide chords drawings
tab show chords e-chords YouTube Clip e-chords hide all tabs e-chords go to top tab

share