Chon

Potion

Chon

tabs Expert expert

by  UBIRBOMFIM

save to print version add songbook text version e-mail correct tuner
chordsukulelecavacokeyboardtabbassdrumsharmonicaflute Guitar Pro
close

there isn't a video lesson for this song

chords

Potion

Key:  E More
Potion Key BB
Potion Key CC
Potion Key C#C#
Potion Key DD(one step down)
Potion Key D#D#(half step down)
Potion Key EE(original key)
Potion Key FF(half step up)
Potion Key F#F#(one step up)
Potion Key GG
Potion Key G#G#
Potion Key AA
Potion Key A#A#
	  		

      E  E  E  E  E  E     E   E   E  E  E    E    
E||--11-----------------|--9---------------------| 
B||------9-----------9--|-----12-----------------| 
G||---------8-----8-----|-------------9----------| 
D||------------9--------|---------13-------------| 
A||---------------------|----------------9h--11--| 
E||---0-----------------|--9---------------------| 


  ^                       ^                 
  E   E  E  E   E   E     Q.     E  E  E    
---------------11p--9--|--7------7--------| 
------------9----------|--7---------7-----| 
---------8-------------|--x------------6--| 
--6h--9----------------|--x---------------| 
--x--------------------|--x---------------| 
--0--------------------|--4---------------| 


  ^       ^          ^                                   
  Q    E  Q    E     H.              E  E  E  E  E  E    
------------------|---------------|--4-----------------| 
-------0-------7--|--0------------|-----7-----------7--| 
--8-------6-------|--x------------|--------4-----4-----| 
--6-------4-------|--x------------|-----------6--------| 
--7-------6-------|--x------------|--------------------| 
------------------|--4------------|--4-----------------| 


                          ^                      
  E   E   E  E   E  E     E   E  E  E   E   E    
--9--------------------|---------------11p--9--| 
-----12----------------|------------9----------| 
-------------9---------|---------8-------------| 
---------13------------|--6h--9----------------| 
----------------11--9--|--x--------------------| 
--9--------------------|--0--------------------| 


  ^                  ^        ^           ^              
  Q.     E  E  E     E  E  E  E  E  E     H.             
--7---------7-----|--------6--------7--|--6------------| 
--7------------7--|-----0--------7-----|--4------------| 
--x---------------|--8--------6--------|--4------------| 
--x---------------|--6--------4--------|--x------------| 
--x---------------|--7--------6--------|--x------------| 
--5------7--------|--------------------|--4------------| 


   E  E  E  E  E  E     E   E   E  E  E    E    
--11-----------------|--9---------------------| 
------9-----------9--|-----12-----------------| 
---------8-----8-----|-------------9----------| 
------------9--------|---------13-------------| 
---------------------|----------------9h--11--| 
---0-----------------|--9---------------------| 


  ^                       ^                 
  E   E  E  E   E   E     Q.     E  E  E    
---------------11p--9--|--7------7--------| 
------------9----------|--7---------7-----| 
---------8-------------|--x------------6--| 
--6h--9----------------|--x---------------| 
--x--------------------|--x---------------| 
--0--------------------|--4---------------| 


  ^       ^          ^                                   
  Q    E  Q    E     H.              E  E  E  E  E  E    
------------------|---------------|--4-----------------| 
---------------7--|--4------------|-----7-----------7--| 
--8-------6-------|--x------------|--------4-----4-----| 
--6----9--4-------|--x------------|-----------6--------| 
--7-------6-------|--x------------|--------------------| 
------------------|--4------------|--4-----------------| 


                           ^                      
  E   E   E  E   E   E     E   E  E  E   E   E    
--9---------------------|---------------11p--9--| 
-----12-----------------|------------9----------| 
-------------9----------|---------8-------------| 
---------13-------------|-----------------------| 
----------------11p--9--|--9--11----------------| 
--9---------------------|--0--------------------| 


  ^                  ^        ^           ^              
  Q.     E  E  E     E  E  E  E  E  E     H.             
--7---------7-----|--------6--------7--|--6------------| 
--7------------7--|-----0--------7-----|--4------------| 
--x---------------|--8--------6--------|--4------------| 
--x---------------|--6--------4--------|--x------------| 
--x---------------|--7--------6--------|--x------------| 
--5------7--------|--------------------|--4------------| 


E - 8th 
Q - quarter 
H - half 

x - dead note 
h - hammer on 
p - pull off 
^ - brush up 
		  

auto scroll beats size up size down change color hide chords drawings
tab show chords e-chords YouTube Clip e-chords hide all tabs e-chords go to top tab

share