Choking Victim

home > Choking Victim

In Hell Tab

Choking Victim

Difficulty: nolevelnolevel

tuner correct add songbook print version text version save to e-mail
chordsukulelecavacokeyboardtabbassdrumsharmonicsflute Guitar Pro
chords

In Hell

  		Band - Choking Victim 
Song - In Hell 
Tabber - Carny (www.dislexicmoo.com) 
 
Instruction : Song is easy but, in the recorded parts it can be wierd. 
 
Key :  
     "_" = Palm Mute 
Introduction : 
*note : The riff begins after the guy says the whole "..my choking style..". If you want to play this part true to the recorded version, use a phaser and distortion.* 
 
::guitar a:: 
e|----------------------------------------------------------------------------| 
B|----------------------------------------------------------------------------| 
G|----------11-11-11-11-----------8-8-8-8-----------4-4-4-4-----------6-6-6-6-| 
D|-9-9-9-9--11-11-11-11--6-6-6-6--8-8-8-8--2-2-2-2--4-4-4-4--4-4-4-4--6-6-6-6-| 
A|-9-9-9-9--9--9--9--9---6-6-6-6--6-6-6-6--2-2-2-2--2-2-2-2--4-4-4-4--4-4-4-4-| 
E|-7-7-7-7---------------4-4-4-4-----------0-0-0-0-----------2-2-2-2----------| 
 
After the riff is played once with a phaser another guitar comes in playing the same chord, but just striking it once. *guitar b just has distortion on, not phaser* 
 
::guitar b:: 
e|----------------------------------------------------------------------------| 
B|----------------------------------------------------------------------------| 
G|----------11-------------------8------------------4-----------------6-------| 
D|-9--------11-----------6-------8---------2--------4--------4--------6-------| 
A|-9--------9------------6-------6---------2--------2--------4--------4-------| 
E|-7---------------------4-----------------0-----------------2----------------| 
 
Verse :  
*note : this is where the song really picks up so play it fast.* 
 
::guitar b:: 
e|----------------------------------------------------------------------------| 
B|----------------------------------------------------------------------------| 
G|----------11-11-11-11-----------8-8-8-8-----------4-4-4-4-----------6-6-6-6-| 
D|-9-9-9-9--11-11-11-11--6-6-6-6--8-8-8-8--2-2-2-2--4-4-4-4--4-4-4-4--6-6-6-6-| 
A|-9-9-9-9--9--9--9--9---6-6-6-6--6-6-6-6--2-2-2-2--2-2-2-2--4-4-4-4--4-4-4-4-| 
E|-7-7-7-7---------------4-4-4-4-----------0-0-0-0-----------2-2-2-2----------| 
 
Chorus : 
 
::guitar b:: 
x2 
  __________Palm Mute____________ 
e|----------------------------------------| 
B|----------------------------------------| 
G|----------------------------------------| 
D|-6-6-6-6-6-6-6-6-6-6--4-4-4-4-4-4-4-4-4-| 
A|-6-6-6-6-6-6-6-6-6-6--4-4-4-4-4-4-4-4-4-| 
E|-4-4-4-4-4-4-4-4-4-4--2-2-2-2-2-2-2-2-2-| 
 
*note on the third time play this* 
  _________Palm Mute_____________ 
e|----------------------------------------------------------| 
B|----------------------------------------------------------| 
G|-----------------------------------------6-6-6-6--8-8-8-8-| 
D|-6-6-6-6-6-6-6-6-6-6--4-4-4-4-4-4-4-4-4--6-6-6-6--8-8-8-8-| 
A|-6-6-6-6-6-6-6-6-6-6--4-4-4-4-4-4-4-4-4--4-4-4-4--6-6-6-6-| 
E|-4-4-4-4-4-4-4-4-4-4--2-2-2-2-2-2-2-2-2-------------------| 
 
 
play order: 
 
Intro 
Verse 
Chorus 
Verse 
Chorus 
Intro 
Verse 
 

	  

Search Paypal
auto scroll beats size up size down change color hide chords drawings
tab show chords e-chords YouTube Clip e-chords hide all tabs e-chords go to top tab