Children Collide

Terrible Lizard

Children Collide

tabs

by  PAULANTUNES

save to print version add songbook text version e-mail correct tuner
chordsukulelecavacokeyboardtabbassdrumsharmonicaflute Guitar Pro
close

there isn't a video lesson for this song

chords

Terrible Lizard

	  		



Main Riff | 1st Verse (Reasonably fast delay; should be long enough that a second  
note is heard straight after the one that you pick) 
e|--------------------------------------| 
B|--------------------------------------| 
G|--------------------------------------| 
D|---14-12h14p(12)----------------------|  x56 (Not joking) 
A|-----------------14--12--10-----------| 
E|----------------------------12--------| 

Chorus (DISTORTION) 
   (Em)           (Bm)                    (Am)          (Em) 
e|--------------|------------------|-----|-------|-----|-----| 
B|--------------|------------------|-----|-------|-----|-----| 
G|---9-9-9-9tr--|---/16-16-16-16tr-|-21\-|-14tr--|-21\-|-9tr-| 
D|--------------|------------------|-----|-------|-----|-----| x 1 
A|---7-7-7-7tr--|---/14-14-14-14tr-|-19\-|-12tr--|-19\-|-7tr-| 
E---------------|------------------|-----|-------|-----|-----| 


2nd Verse 
e|--------------------------------------| 
B|--------------------------------------| 
G|--------------------------------------| 
D|---14-12h14p(12)----------------------|  x32 (Still Not joking) 
A|-----------------14--12--10-----------| 
E|----------------------------12--------| 


Chorus   (Em)      (Bm)                    (Am)          (Em) 
e|--------------|------------------|-----|-------|-----|-----| 
B|--------------|------------------|-----|-------|-----|-----| 
G|---9-9-9-9tr--|---/16-16-16-16tr-|-21\-|-14tr--|-21\-|-9tr-| 
D|--------------|------------------|-----|-------|-----|-----| x 1  
A|---7-7-7-7tr--|---/14-14-14-14tr-|-19\-|-12tr--|-19\-|-7tr-| 
E|--------------|------------------|-----|-------|-----|-----| 


e|--------------|------------------|-----|-------|---------------------| 
B|--------------|------------------|-----|-------|---------------------| 
G|---9-9-9-9tr--|---/16-16-16-16tr-|-21\-|-14tr--|-21\9tr/21-21\9-9/21-| 
D|--------------|------------------|-----|-------|---------------------| x 1  
A|---7-7-7-7tr--|---/14-14-14-14tr-|-19\-|-12tr--|-19\7tr/19-19\7-7/19-| 
E|--------------|------------------|-----|-------|---------------------| 

Breakdown   (Em) 
e|--------------| 
B|--------------| 
G|--------------| 
D|-2-2-2-2-2-2--| x2  
A|-2-2-2-2-2-2--| 
E|-0-0-0-0-0-0--|       

e|--------------| 
B|--------------| 
G|-4-4/-16-(16)-| 
D|--------------| x3 
A|-2-2/-14-(14)-| 
E|-0-0?-0---0---| 

e|-------------------------------| 
B|-------------------------------| 
G|-4-4/--------------------------| 
D|-------7-7-7-7-7-7-7-7-7-7-7-7-| x1 
A|-2-2/--------------------------| 
E|-0-0?--5-5-5-5-5-5-5-5-5-5-5-5-| 

e|--------------| 
B|--------------| 
G|-9-9/-21-(21)-| 
D|--------------| x3 
A|-7-7/-19-(19)-| 
E|-0-0?-0---0---| 

e|--------------|------------------|-----|-------|---------------------| 
B|--------------|------------------|-----|-------|---------------------| 
G|---9-9-9-9tr--|---/16-16-16-16tr-|-21\-|-14tr--|-21\9tr/21-21\9-9/21-| 
D|--------------|------------------|-----|-------|---------------------| x 1  
A|---7-7-7-7tr--|---/14-14-14-14tr-|-19\-|-12tr--|-19\7tr/19-19\7-7/19-| 
E|--------------|------------------|-----|-------|---------------------| 

Outro 
e|--------------------------------------| 
B|--------------------------------------| 
G|--------------------------------------| 
D|---14-12h14p(12)----------------------|  x5 (Slow down) 
A|-----------------14--12--10-----------| 
E|----------------------------12--------| 
 
		  

Full key step upFull key step up
Half key step upHalf key step up
Half key step downHalf key step down
Full key step downFull key step down
hide glossary

See also:

tabs Hillsong Music Australia - You are my world tabs Behind Crimson Eyes - This Is The End tabs Australian Crawl - Errol (solo) tabs Colin Hay - I Just Don't Think I'll Ever Get Over You tabs INXS - prety vegas tabs Augie March - There's No Such Place
e-chords

Other versions:

tabs Children Collide - Terrible Lizard
auto scroll beats size up size down change color hide chords drawings
tab show chords e-chords YouTube Clip e-chords hide all tabs e-chords go to top tab

share