Chevelle

home > Chevelle

Panic prone Tab

Chevelle

Difficulty: BeginnerBeginner

by kalilvaz

tuner correct add songbook print version text version save to e-mail
chordsukulelecavacokeyboardtabbassdrumsharmonicsflute Guitar Pro
chords

Panic prone

  		Gave in Again  

The bastard  
D---------------------------------------------------------- 
A----5---5---5---5---5---5---1---1---1---1---1---1 
E--3---3---3---3---3---3---3---3---3---3---3---3-- 


Can't keep refusing rights  
D---------------------------------------------------------- 
A----5---5---5---5---5---5---1---1---1---3---3---3 
E--3---3---3---3---3---3---3---3---3---1---1---1-- 

D---------------------------------------------------------- 
A----5---5---5---5---5---5---1---1---1---1---1---1 
E--3---3---3---3---3---3---3---3---3---3---3---3-- 


So he'll loan the cash  

But the sin  
D---------------------------------------------------------- 
A----5---5---5---5---5---5---1---1---1---1---1---1 
E--3---3---3---3---3---3---3---3---3---3---3---3-- 


Is on the hands of you  
D---------------------------------------------------------- 
A----5---5---5---5---5---5---1---1---1---3---3---3 
E--3---3---3---3---3---3---3---3---3---1---1---1-- 

D---------------------------------------------------------- 
A----5---5---5---5---5---5---1---1---1---1---1---1 
E--3---3---3---3---3---3---3---3---3---3---3---3-- 

Chorus: 

               So to care or  
D----3---3---3---3---3---3---3---3---3---3---3---3- 
A--1---1---1---1---1---1---1---1---1---1---1---1--- 
E----------------------------------------------------------- 

               Plead silence 
D----------------------------------------------------------- 
A----5---5---5---5---5---5---5---5---5---5---5---5- 
E--3---3---3---3---3---3---3---3---3---3---3---3--- 


weak hands are  
D----8---8---8---8---8---8---8---8---8---8---8---8- 
A--6---6---6---6---6---6---6---6---6---6---6---6--- 
E----------------------------------------------------------- 

calling 
D------------------------------------------------------------------------- 
A----3---3---3---3---3---3---3---3---3---3---3---3---4---4---4- 
E--1---1---1---1---1---1---1---1---1---1---1---1---2---2---2--- 

end Chorus 


There's close enough  

And there's too far  
D----------------------------------------------------------- 
A----5---5---5---5---5---5---1---1---1---1---1---1- 
E--3---3---3---3---3---3---3---3---3---3---3---3--- 


It won't change an empty stare 
D---------------------------------------------------------- 
A----5---5---5---5---5---5---1---1---1---3---3---3 
E--3---3---3---3---3---3---3---3---3---1---1---1-- 

D--------------------------------------------------------- 
A----5---5---5---5---5---5---1---1---1---1---1---1 
E--3---3---3---3---3---3---3---3---3---3---3---3-- 


But I can't seem to end  
  
These images  
D----------------------------------------------------------- 
A----5---5---5---5---5---5---1---1---1---1---1---1- 
E--3---3---3---3---3---3---3---3---3---3---3---3--- 


Hauntingly looks like hell  
D---------------------------------------------------------- 
A----5---5---5---5---5---5---1---1---1---3---3---3 
E--3---3---3---3---3---3---3---3---3---1---1---1-- 

D---------------------------------------------------------- 
A----5---5---5---5---5---5---1---1---1---1---1---1 
E--3---3---3---3---3---3---3---3---3---3---3---3-- 


(Chorus X2) 

Come, Enter the foreign.  
Face, All that's shameful.  
Cheat, May the past find  
Out; Separating... 

D--3/5--5-5-5-5-5---5-5-5-5--3/5--5-5-5-5-5---5-5-5-5- 
A--3/5--5-5-5-5-5---5-5-5-5--3/5--5-5-5-5-5---5-5-5-5- 
E--1/3--3-3-3-3-3---3-3-3-3--1/3--3-3-3-3-3---3-3-3-3- 

D-8--8-8-8-8-8--8-8-8-8-8--8-8-8-8-8--8-8-8-8-- 
A-8--8-8-8-8-8--8-8-8-8-8--8-8-8-8-8--8-8-8-8-- 
E-6--6-6-6-6-6--6-6-6-6-6--6-6-6-6-6--6-6-6-6-- 

REPET X4 

Chorus:REPET X2 
G--3-------8------------- 
D--3---5---8---3---4---       
A--1---5---6---3---4--- 
E------3-------1---2----- 
end Chorus 


To care or 
D----------------------------------------------------------- 
A----5---5---5---5---5---5---1---1---1---1---1---1- 
E--3---3---3---3---3---3---3---3---3---3---3---3--- 

REPET X4 


END 


	  

Search Paypal
auto scroll beats size up size down change color hide chords drawings
tab show chords e-chords YouTube Clip e-chords hide all tabs e-chords go to top tab