Cherri Bomb

Better This Way

Cherri Bomb

tabs

by  HEBEALMEIDA

save to print version add songbook text version e-mail correct tuner
chordsukulelecavacokeyboardtabbassdrumsharmonicaflute Guitar Pro
close

there isn't a video lesson for this song

chords

Better This Way

	  		


Intro 

e|--------------------------------------------------------------| 
B|-8-8--8-8-8--8-8-8--8-8-8--8-8-8--8-8-8--8-8-8--8-8-8--8-8-8--| 
G|-0-0--0-0-0--0-0-0--0-0-0--0-0-0--0-0-0--0-0-0--0-0-0--0-0-0--| 
D|-x-x--x-x-x--x-x-x--x-x-x--x-x-x--x-x-x--x-x-x--x-x-x--x-x-x--| 
A|-7-7--7-7-7--7-7-7--7-7-7--7-7-7--7-7-7--7-7-7--7-7-7--7-7-7--| 
E|--------------------------------------------------------------| 

Main Riff 

e|-----------------------------------------------------------------------| 
B|-----------------------------------------------------------------------| 
G|-----------------------------------------------------------------------| 2x 
D|-----------------------------------------------------------------------| 
A|-----------------------------------------------------------------------| 
E|-0-7-7-0-7-7-0-8-0-8-8-0-8-8-0-10-10-0-10-10-0-11-0-11-11-0-11-11-0-12-| 

Verse 
Main riff palm muted. 

Chorus 
I think this is how Miranda plays it, I'm not sure, I don't know how Julia plays it. 

e|-------------------------------------------------------| 
B|-------------------------------------------------------| 
G|-55555555-12-12-12-12-12-12-12-12-9999999977777777-----|  2x 
D|-55555555-12-12-12-12-12-12-12-12-9999999977777777-----| 
A|-33333333-10-10-10-10-10-10-10-10-7777777755555555-----| 
E|-------------------------------------------------------| 

Riff 
Verse 

Bridge 

e|---------------------------------------------------| 
B|---------------------------------------------------| 
G|------------9-9-7-7-12-10-10-9-9-7-9-9-------------| 
D|-7-7-9-9-10-----------------------------9b---------| 
A|---------------------------------------------------| 
E|---------------------------------------------------| 
                                                          3x 
e|----------------------------------------7b---------| 
B|---------------------------------------------------| 
G|------------9-9-7-7-12-10-10-9-9-7-9-9-------------| 
D|-7-7-9-9-10----------------------------------------| 
A|---------------------------------------------------| 
E|---------------------------------------------------| 

e|------------------------------------------------------------------| 
B|------------------------------------------------------------------| 
G|------------------------------------------------------------------| 
D|-------------------9-9-9-7-7-7-12-12-10-10-10-9-9-9-7-7-9-9-9-----| 2x 
A|-7-7-7-9-9-9-10-10-7-7-7-5-5-5-10-10-8--8--8--7-7-7-5-5-7-7-7-7b--| 
E|-5-5-5-7-7-7-8--8---------------------------------------------9b--| 

Miranda: 
e|----------------------------| 
B|----------------------------| 
G|----------------------------|  4x then slide up 
D|----------------------------| 
A|----------------------------| 
E|--0-12-12-0-12-12-0-12------| 

Julia 
e|--0-12-12-0-12-12-0-12------| 
B|----------------------------| 
G|----------------------------|  4x then slide up 
D|----------------------------|   
A|----------------------------| 
E|----------------------------| 
Chorus 
Riff 
 
		  

See also:

tabs Slayer - Raining Blood tabs Slipknot - Vermilion Pt.2 tabs Avenged Sevenfold - Nightmare tabs Avenged Sevenfold - Afterlife tabs Motley Crue - Kickstart My Heart tabs Slipknot - Wait And Bleed (ver. 2)
e-chords

Other versions:

tabs Cherri Bomb - Better This Way
auto scroll beats size up size down change color hide chords drawings
tab show chords e-chords YouTube Clip e-chords hide all tabs e-chords go to top tab

share