Charlie Simpson

Please Let Me Go

Charlie Simpson

tabs Intermediate intermediate

by  GUSTSILVA

save to print version add songbook text version e-mail correct tuner
chordsukulelecavacokeyboardtabbassdrumsharmonicaflute Guitar Pro
close

there isn't a video lesson for this song

chords

Please Let Me Go

	  		
Intro 
 
e|------------------------|            
B|-------3----------------|             
G|----------0----0--------|            
D|----2-------2-----------| (4x)      
A||-3---------------------|            
E-------------------------|     

e|---------------------| 
B|----------3----------| 
G|------------0--0-----| 
D|-------2-----2-------| (4x)
A|-0h2-----------------| 
E|---------------------| 

Verse 


e|------------------------|            
B|-------3----------------|             
G|----------0----0--------|            
D|----2-------2-----------| (4x)      
A|-3----------------------|            
E|------------------------|     


e|---------------------| 
B|----------3----------| 
G|------------0--0-----| 
D|-------2-----2-------| (4x) 
A|-0h2-----------------| 
E|---------------------| 


e|------------------------|            
B|-------3----------------|             
G|----------0----0--------|            
D|----3-------3-----------| (4x)      
A|-3----------------------|            
E|------------------------|  

e|----------------------------| 
B|------3-------------3---1-0-| 
G|--------0---0---------0---0-| 
D|----2-----2-------2---------|  
A|-2-------------0h2----------| 
E-----------------------------| 

e|-------------| 
B|----3--------| 
G|-----0-0-----| 
D|------2------| (2x) 
A|--2----------| 
E|-3-----------| 


e|------------------------|            
B|-------3----------------|             
G|----------0----0--------|            
D|---3-------3------------| (4x)      
A|-3----------------------|            
E|------------------------|  

e|----------------------------| 
B|------3-------------3---1-0-| 
G|--------0---0---------0---0-| 
D|----2-----2-------2---------|  
A|-2-------------0h2----------| 
E|----------------------------| 

e|-------------| 
B|----3--------| 
G|-----0-0-----| 
D|------2------| (2x) 
A|--2----------| 
E|-3-----------| 

Pre-Chorus 


e|-----------------------------| 
B|---- 3----------3--------3---| 
G|------0--0-------0-0-----0-0-| 
D|---2---2------2---2----2--2--|   
A|-0-----------2--------3------| 
E|-----------------------------| 

e|----------------| 
B|---- 3----------| 
G|------0--0------| 
D|---2---2--------|   
A|-0--------------| 
E|----------------| 


e|----------------| 
B|---- 3----------| 
G|------0--0------| 
D|---2---2--------|  (4x) 
A|-2--------------| 
E|----------------| 

Chorus 

C Gadd11 Csus4 (2x) 
Am7 C Csus4 
Am7 Csus4 

Pre-verse - Intro 

Verse 2 

e|------------------------|            
B|-------3----------------|             
G|----------0----0--------|            
D|----2-------2-----------| (4x)      
A|-3----------------------|            
E|------------------------|     


e|---------------------| 
B|----------3----------| 
G|------------0--0-----| 
D|-------2-----2-------| (4x)
A|-0h2-----------------| 
E|---------------------| 


e|------------------------|            
B|-------3----------------|             
G|----------0----0--------|            
D|----3-------3-----------| (4x)      
A|-3----------------------|            
E|------------------------|  

e|----------------------------| 
B|------3-------------3---1-0-| 
G|--------0---0---------0---0-| 
D|----2-----2-------2---------|  
A|-2-------------0h2----------| 
E|----------------------------| 

e|-------------| 
B|----3--------| 
G|-----0-0-----| 
D|------2------| (2x) 
A|--2----------| 
E|-3-----------| 


Chorus 

C Gadd11 Csus4 (2x) 
Am7 C Csus4 (2x) 
Am7 Csus4 

Outro
 
e|------------------------|            
B|-------3----------------|             
G|----------0----0--------|            
D|----2-------2-----------| (8x)      
A|-3----------------------|            
E|------------------------|    

 
		  

Full key step upFull key step up
Half key step upHalf key step up
Half key step downHalf key step down
Full key step downFull key step down
hide glossary

See also:

tabs Stone Temple Pilots - Crackerman tabs Oasis - Stand by me (solo) tabs Arctic Monkeys - Do I Wanna Know? tabs Arctic Monkeys - Fake Tales of San Francisco tabs Jethro Tull - Hymn 43 tabs Ben Howard - Keep Your Head Up
e-chords

Other versions:

tabs Charlie Simpson - Please Let Me Go
auto scroll beats size up size down change color hide chords drawings
tab show chords e-chords YouTube Clip e-chords hide all tabs e-chords go to top tab

share