Charles Bradley

Aint It A Sin

Charles Bradley

tabs

by  ANDRSOUZA

save to print version add songbook text version e-mail correct tuner
chordsukulelecavacokeyboardtabbassdrumsharmonicaflute Guitar Pro
close

there isn't a video lesson for this song

chords

Aint It A Sin

	  		
Intro 

e|---------------------------------------------------------------------------| 
B|---------------------------------------------------------------------------| 
G|---------------------------------------------------------------------------|x8 
D|---------------------------------------------------------------------------| 
A|---------------------------------------------------------------------------| 
E|-11-11-11-11-11-11-11-11-11-11-11-11-11-11-11-11-11-11-11-11-11-11-11-11-11| 


Verse 

e|-------------------------------------------------| 
B|-------------------------------------------------| 
G|-------------------------------------------------|x4 
D|---------6/8--------------------6/8--------------| 
A|---------------4-6-6-4-6-4-4---------4-6-6-6-4---| 
E|------------6----------------------6-------------| 

e|-----| 
B|-----| 
G|-10--| 
D|-10--| 
A|-8---| 
E|-----| 


Verse 

e|-------------------------------------------------| 
B|-------------------------------------------------| 
G|-------------------------------------------------|x4 
D|---------6/8--------------------6/8--------------| 
A|---------------4-6-6-4-6-4-4---------4-6-6-6-4---| 
E|------------6----------------------6-------------| 


Chorus 

e|-------------------------------------| 
B|-------------------------------------| 
G|-10--10--10---10-9-8--8-8-8--8-9-10--|x2 
D|-10--10--10---10-9-8--8-8-8--8-9-10--| 
A|-8---8---8----8--7-6--6-6-6--6-7-8---| 
E|-------------------------------------| 

e|---------------| 
B|---------------| 
G|---------------| 
D|---------------| 
A|----4----4-6---| 
E|-4-6--4-6------| 


Verse 

e|-------------------------------------------------| 
B|-------------------------------------------------| 
G|-------------------------------------------------|x6 
D|---------6/8--------------------6/8--------------| 
A|---------------4-6-6-4-6-4-4---------4-6-6-6-4---| 
E|------------6----------------------6-------------| 

Repeat! 

************************************ 
/   Slide up 
************************************ 
		  

auto scroll beats size up size down change color hide chords drawings
tab show chords e-chords YouTube Clip e-chords hide all tabs e-chords go to top tab

share