Charlene Kaye

Skin And Bones

Charlene Kaye

tabs nolevel nolevel

by  VICTBORGES

save to print version add songbook text version e-mail correct tuner
chordsukulelecavacokeyboardtabbassdrumsharmonicaflute Guitar Pro
close

there isn't a video lesson for this song

chords

Skin And Bones

	  		
Intro and Verse (Do each part twice) 
E|-----------------| 
B|-----------------| 
G|-7-7-7-7-4-4-4-4-| 
D|-7-7-7-7-4-4-4-4-| 
A|-5-5-5-5---------| 
E|---------3-3-3-3-| 



E|-----------------| 
B|-----------------| 
G|-5-5-5-5-2-2-2-2-| 
D|-5-5-5-5-2-2-2-2-| 
A|-3-3-3-3---------| 
E|---------1-1-1-1-| 


Chorus: "I'm runnin' around..." 
E|----------------------------------6-------------| 
B|----------------------------------8-------------| 
G|---10-8-8-8-8-7-7-7-7-8-8-8-8-7-7-7-------------| 
D|-3-10-8-8-8-8-7-7-7-7-8-8-8-8-7-7-8-------------| 
A|-3-8--6-6-6-6---------6-6-6-6-----6-------0-2-4-| 
E|-1------------6-6-6-6---------6-6---0-2-3-------| 

Darren's Verse 
Then: 

"but now we say goodnight..." 
E|-----------------------------------------| 
B|-----------------------------------------| 
G|-7-4-7-4-5-5-5-5-2-2-2-2-5-5-5-5-2-2-2-2-| 
D|-7-5-7-5-5-5-5-5-2-2-2-2-5-5-5-5-2-2-2-2-| 
A|-5-5-5-5-3-3-3-3---------3-3-3-3---------| 
E|---3---3---------1-1-1-1---------1-1-1-1-| 

"You never planned to love me for this long of time." 

After that, go back to the chorus. 
		  

See also:

tabs Michael Jackson - Beat It (ver. 2) tabs Yellowcard - Ocean Avenue tabs Kelly Clarkson - Since u been gone tabs Pink - Who knew tabs Maroon 5 - Sweetest Goodbye tabs Justin Timberlake - Senorita
e-chords

Other versions:

tabs Charlene Kaye - Skin And Bones tabs The Sundays - Skin And Bones
auto scroll beats size up size down change color hide chords drawings
tab show chords e-chords YouTube Clip e-chords hide all tabs e-chords go to top tab

share with facebook