Chad Vangaalen

Weighted Sin

Chad Vangaalen

tabs

by  JOAOEWERTON

save to print version add songbook text version e-mail correct tuner
chordsukulelecavacokeyboardtabbassdrumsharmonicaflute Guitar Pro
close

there isn't a video lesson for this song

chords

Weighted Sin

	  		

Verse 

d |----------------------------------| 
A |----------------------------------| 
F#|--3h0-----3h0-1--1p0----------0---| 
D |--4---4---2---2------2---0--------| 
A |--5---2---0---2--------2---0h2----| 
D |----------------------------------| 

Chorus Chords 

d |-----------------| 
A |-----------------| 
F#|--5---3---3---3--| 
D |--X---4---2---4--| 
A |--X---5---0---5--| 
D |--5--------------| 
		  

See also:

tabs Sum 41 - No Sllep Till Brooklyn tabs Sum 41 - Some Say tabs Sum 41 - The Hell Song tabs Sum 41 - Slipping Away tabs Sum 41 - Another Time Around tabs Sum 41 - 32 ways to die
e-chords

Other versions:

tabs Chad Vangaalen - Weighted Sin
auto scroll beats size up size down change color hide chords drawings
tab show chords e-chords YouTube Clip e-chords hide all tabs e-chords go to top tab

share