Católicas

home > Católicas

Ave Maria Tab

Católicas

Difficulty: BeginnerBeginner

by Feruji

tuner correct add songbook print version text version save to e-mail
chordsukulelecavacokeyboardtabbassdrumsharmonicsflute Guitar Pro
chords

Ave Maria

  		 
 
E/----------------------------------------------------------------------------------------------------------------------------------------------------------------------------------------------------------------------------/ 
B/-1---0--1---5---3---1---3---5---3---1--0----------0--1---5---5---3---3---1--0------------5--7---5---4---0---3---3---1---0---3---5---6---3---0---1---5---3---3---0---------------------/ 
G/---------------------------------------2---------------------------------2------------------------------------------------------------------------------------------------------------------------------------------------/ 
 
E/----------------------------------------------------------------------------------------------------------------------------------------------------------------------------------------------------------------------------/ 
B/---------------2--5--8----5--2--3------------0--1--0-------------------------3--3---3---2---3---5---3---5--1------1--3---3---3---2---3---6---5---3---1-------1--3---3---5---5---5---3----/ 
G/----2--------------------------------------2-----------------------2--0-----0------------------------------------------------------------------------------------------------------------------------------------------/ 
 
E/--------------------------------------------------------------------------------------------/ 
B/5--8--6---------------5--3--1--0--1--4--3--1--3---1--0--1--5--3--1--------/ 
G/---------------2---------------------------------------------------------------------------/ 
 
 
[email protected] 
 

	  

Search Paypal
auto scroll beats size up size down change color hide chords drawings
tab show chords e-chords YouTube Clip e-chords hide all tabs e-chords go to top tab