Catfish And The Bottlemen

home > Catfish And The Bo...

Sidewinder Tab

Catfish And The Bottlemen

Difficulty: nolevelnolevel

by jov%2Dcorrea

tuner correct add songbook print version text version save to e-mail
chordsukulelecavacokeyboardtabbassdrumsharmonicsflute Guitar Pro
chords

Sidewinder

  		

Tuning: EADGBe 

* 
Capo on 2* 

So, this is my third CFATB tab, and this is a personal favourite off the fantastic debut album, 'The Balcony' 
It is all done by ear so will not be 100% but I think it is pretty good, and certainly good enough.  
If there are any improvements or errors, feel free to comment or email me personally, and I'll try to fix the 
tab for a better result! Enjoy! 

Intro: 
Clean tone all palm muted w/ some reverb  
e|--------------------------------------------------| 
B|-0-0-0-0-0-0-5-5-5-5-5-5-3-3-3-3-3-3--------------| 
G|-0-0-0-0-0-0-0-0-0-0-0-0-4-4-4-4-4-4--------------| (x2) 
D|-2-2-2-2-2-2-5-5-5-5-5-5-5-5-5-5-5-5-4-4-4-4-4-4--|  
A|-2-2-2-2-2-2-3-3-3-3-3-3-5-5-5-5-5-5-5-5-5-5-5-5--| - these chords also repeat through most of the song 
E|-------------------------3-3-3-3-3-3-5-5-5-5-5-5--| 
                                               ^ ^ On the 2nd time, miss these out and start the next part 

Chorus/post Intro: 
e|----------------------------------------------------------------------------------------------------------| 
B|----------------------------------------------------------------------------------------------------------| 
G|-4br------------------------------------------------------------------------------------------------------| 
D|---------------------5-5-5-5-5---7-7-7-7-7-5h7-9-9-12-14-12-10-9-9-9-10-9-7-5-5-5-5-5-5-----5h7-7b8b7-5-7-| 
A|-------7-7-7-7-7-5h7-----------7--------------------------------------------------------5h7---------------| 
E|----------------------------------------------------------------------------------------------------------| 
                                              (You may prefer sliding some of these notes) 
e|------------------------------------------------------------------------------------------------| 
B|------------------------------------------------------------------------------------------------| 
G|------------------------------------------------------------------------------------------------| 
D|-----5-5-5-5-5-----7-7-7-7-7-5h7-9-9-9-12-14-14--14b16-16br14-12-14-12-10-9-10-9-7-5-7-7b8-5----| 
A|-5h7-----------5h7---------------------------------------------------------------------------7--| 
E|------------------------------------------------------------------------------------------------| 
                             Hold this note and^    ^don't pick this note  

e|----------------------------| 
B|----------------------------| 
G|----------------------------| 
D|-----5h7-7b8b7-5-7--5---5---|  
A|-5h7------------------7---7-|  
E|----------------------------| 

Repeat everything played so far another time now  
(When you repeat, dont play the final 4 notes on the line 
above 5 7 5 7) 
And then:- 

Bridge: 
e|--------------------------------------------------------------------------------------------------| 
B|--------------------------------------------------------------------------------------------------| 
G|--------------------------------------------------------------------------------------------------| 
D|-99-9-9-77-7-7-55-5-5-44-4-4-0-0-2b3--b2-0---99-9-9-77-7-7-55-5-5-44-4-4-0-0-0--4h5-7-5-4-0---0-2-| 
A|--------------------------------------------------------------------------------------------2---2-| 
E|------------------------------------------------------------------------------------------------0-| 

verse 2: 
Clean again with reverb 
e|----------------------------------------------------------------------------------------------------------| 
B|-5--3------3--5--3---0-0-0-0-0-0-5-5-5-5-5-5-3-3-3-3-3-3-------------0-0-0-0-0-0-5-5-5-5-5-5-3-3-3-3-3-3--| 
G|-5--4----4----4--4---0-0-0-0-0-0-5-5-5-5-5-5-4-4-4-4-4-4-------------0-0-0-0-0-0-5-5-5-5-5-5-4-4-4-4-4-4--|  
D|-5--5--5------5--5---2-2-2-2-2-2-5-5-5-5-5-5-5-5-5-5-5-5-4-4-4-4-4-4-2-2-2-2-2-2-5-5-5-5-5-5-5-5-5-5-5-5-4| 
A|-3--5------------5---2-2-2-2-2-2-3-3-3-3-3-3-5-5-5-5-5-5-5-5-5-5-5-5-2-2-2-2-2-2-3-3-3-3-3-3-5-5-5-5-5-5-5|  
E|----3------------3---------------------------3-3-3-3-3-3-5-5-5-5-5-5-------------------------3-3-3-3-3-3-5| 

Then into this - 
e|------------------| 
B|------------------| 
G|-4b5b4--0h2p0-----| 
D|--------------2---| 
A|------------------| 
E|------------------|  

Now just play the Chorus and Bridge again 1 more time! Finishing on an Em chord, and maybe messing with the 
low E-string a little as the song drops out.  

************************************ 

| /   slide up 
| \   slide down 
| h   hammer-on 
| p   pull-off 
| ~   vibrato 
| +   harmonic 
| x   Mute note 
| b   Bend 
| pb  Pre-bend 
| br  Bend release 
| pbr Pre-bend release 
| brb Bend release bend 

************************************ 
	  

Search Paypal
auto scroll beats size up size down change color hide chords drawings
tab show chords e-chords YouTube Clip e-chords hide all tabs e-chords go to top tab