Catfish And The Bottlemen

home > Catfish And The Bo...

Red Tab

Catfish And The Bottlemen

Difficulty: nolevelnolevel

by PAULLET3

tuner correct add songbook print version text version save to e-mail
chordsukulelecavacokeyboardtabbassdrumsharmonicsflute Guitar Pro
chords

Red

Key:  Am More
Red Key EmEm
Red Key FmFm
Red Key F#mF#m
Red Key GmGm(one step down)
Red Key G#mG#m(half step down)
Red Key AmAm(original key)
Red Key A#mA#m(half step up)
Red Key BmBm(one step up)
Red Key CmCm
Red Key C#mC#m
Red Key DmDm
Red Key D#mD#m
  		
Verse 

e|---------------------------------------------------------------------------| 
B|---------------------------------------------------------------------------| 
G|-5--8--------5--8----------------------------------------------------------| 
D|-5--8--8--3--5--8--5--5----------------------------------------------------| 
A|-3--6--8--3--3--6--5--5----------------------------------------------------| 
E|-------6--1--------3--3----------------------------------------------------| 


Pre-Chorus 

e|---------------------------------------------------------------------------| 
B|---------------------------------------------------------------------------| 
G|-8--5------------5-5-5-5-5-5-5-5-5-5-5-5-5---------------------------------| 
D|-8--5--5--5------5-5-5-5-5-5-5-5-5-5-5-5-5-8-------------------------------| 
A|-6--3--5--5------3-3-3-3-3-3-3-3-3-3-3-3-3-8-------------------------------| 
E|-------3--3--------------------------------6-------------------------------| 


Chorus 

e|---------------------------------------------------------------------------| 
B|---------------------------------------------------------------------------| 
G|-------8-------------------------------------------------------------------| 
D|-5--3--8--5----------------------------------------------------------------| 
A|-5--3--6--5----------------------------------------------------------------| 
E|-3--1-----3----------------------------------------------------------------| 


Riff 

e|---------------------------------------------------------------------------| 
B|---------------------------------------------------------------------------| 
G|---------------------------------------------------------------------------| 
D|-5-7-8-10-12-15-17---------------------------------------------------------| 
A|---------------------------------------------------------------------------| 
E|-3-5-6-8-10-13-15----------------------------------------------------------| 


Solo 

e|-10-10-10-10-10-10-10-10-10-10-10-10-13-10-13------------------------------| 
B|----------------------------------------------10br-------------------------| 
G|---------------------------------------------------12-12-------------------| 
D|---------------------------------------------------------------------------| 
A|---------------------------------------------------------------------------| 
E|---------------------------------------------------------------------------| 

e|---------------------------------------------------------------------------| 
B|---------------------------------------------------------------------------| 
G|-5-7-10-12-15--------------------------------------------------------------| 
D|---------------------------------------------------------------------------| 
A|-3-5-8-10-13-15br-13-15br-13-15br------------------------------------------| 
E|----------------------------------15---------------------------------------| 


************************************ 

| br  Bend release 

************************************ 
	  

Search Paypal
auto scroll beats size up size down change color hide chords drawings
tab show chords e-chords YouTube Clip e-chords hide all tabs e-chords go to top tab