Catfish And The Bottlemen

home > Catfish And The Bo...

Homesick Tab

Catfish And The Bottlemen

Difficulty: nolevelnolevel

by bombaXXX

tuner correct add songbook print version text version save to e-mail
chordsukulelecavacokeyboardtabbassdrumsharmonicsflute Guitar Pro
chords

Homesick

Key:  Em More
Homesick Key BmBm
Homesick Key CmCm
Homesick Key C#mC#m
Homesick Key DmDm(one step down)
Homesick Key D#mD#m(half step down)
Homesick Key EmEm(original key)
Homesick Key FmFm(half step up)
Homesick Key F#mF#m(one step up)
Homesick Key GmGm
Homesick Key G#mG#m
Homesick Key AmAm
Homesick Key A#mA#m
  		

 
Capo on 6! 

This is all done by ear and is for the re-recorded version (album version) of Homesick. It is a great song, 
one of the best on a fantastic album! This is still one of my first tabs, so any corrections would be greatly 
appreciated! Thanks, and I hope you enjoy. 


Fingerpick this with a clean tone for the most accurate sound 
e|---------------------------------------------------------------------------| 
B|---------------------------------------------------------------------------| 
G|---0--------------------0----------------0---------------------------------| 
D|-2-----4---2---0------2-----4---2------2-----4---2---0--------------2------| 
A|-----5---3---2------------5---3------------5---3---2---2----2---0----------| 
E|-------------------------------------------------------3--3---2---0--------| 

e|-----------------------------------------------------------------------------------| 
B|---3----0----2-------------3----0----1--------3----0----1--------------------------| 
G|--(4)--(0)--(1)-2---------(4)--(0)--(2)------(4)--(0)--(2)---2-0--------4---2---0--| () = Optional notes 
D|-----------------------------------------------------------------------(0)-(0)-(0)-| 
A|-5----3----3----3--------5----3----3--------5----3----3----3-----------------------| 
E|---------------------------------------------------------------3------3---2---0----| 


Chorus: 
(Whack on a little bit of overdrive for this) 
e|-----------------------------------------------------------------------| 
B|---------------------------------------------3-3-3-------5-3-----------| 
G|-4-4-4-2-2-2-0-0-0-----------0-2-4-4-4-2-2-2-------2-2-2-----4-2-------| 
D|-------------------2-2-2-0-2-------------------------------------------| 
A|-----------------------------------------------------------------------| 
E|-----------------------------------------------------------------------| 
     Em    D     C                   Em    D     C         <---- Guitar 2 plays these chords (still over 
                                                                 drive and  
Capo on 6) 
e|-----------------------------------------------------------| 
B|-----------------------------------------------------------| 
G|-4-4-4-2-2-2-0-0-0-----------0-2-4-4-4-2-2-2-0-0-0-0-0-0-0-| <-- Let last note ring 
D|-------------------2-2-2-0-2-------------------------------| 
A|-----------------------------------------------------------| 
E|-----------------------------------------------------------| 
     Em    D     C                   Em    D     C 
  
  (Finger pick this part again)      (use some overdrive and strum this) 
e|-----------------------------------------------------| 
B|------------------------------------1----------------| 
G|---0--------------------0-----------0----------------| 
D|-2-----4---2---0------2-----4---2---2----------------| 
A|-----5---3---2------------5---3-----3----------------| 
E|------------------------------------0----------------| 

Pre-Chorus 
e|------------------------------------------| 
B|------------------------------------------| 
G|------------------------------------------|(x4) - on the last time, slowly release the mute 
D|-0-2-2-0-2-2-0-(2-2-2-2-2-2)--------------| on the final 2's and maybe hit the g string with  
A|------------------------------------------| it too 
E|------------------------------------------|  

Chorus: 
e|-----------------------------------------------------------------------| 
B|---------------------------------------------3-3-3-------5-3-----------| 
G|-4-4-4-2-2-2-0-0-0-----------0-2-4-4-4-2-2-2-------2-2-2-----4-2-------| 
D|-------------------2-2-2-0-2-------------------------------------------| 
A|-----------------------------------------------------------------------| 
E|-----------------------------------------------------------------------| 
     Em    D     C                   Em    D     C         

e|-----------------------------------------------------------| 
B|-----------------------------------------------------------| 
G|-4-4-4-2-2-2-0-0-0-----------0-2-4-4-4-2-2-2-0-0-0-0-0-0-0-|  
D|-------------------2-2-2-0-2-------------------------------| 
A|-----------------------------------------------------------| 
E|-----------------------------------------------------------| 
     Em    D     C                   Em    D     C 

e|-------------------------------------------------------------------------| 
B|-----------------------------------------------3-3-3-------5-3-----------| 
G|-2-4-4-4-2-2-2-0-0-0-----------0-2-4-4-4-2-2-2-------2-2-2-----4-2-------| 
D|---------------------2-2-2-0-2-------------------------------------------| 
A|-------------------------------------------------------------------------| 
E|-------------------------------------------------------------------------| 
       G     D     C                   Em    D     C          
e|-----------------------------------------------------------| 
B|-----------------------------------------------------------| 
G|-4-4-4-2-2-2-0-0-0-----------0-2-4-4-4-2-2-2-0-0-0-0-0-0-0-|  
D|-------------------2-2-2-0-2-------------------------------| 
A|-----------------------------------------------------------| 
E|-----------------------------------------------------------| 
     G     D     C                   Em    D     C 

Solo: 
(Again, distortion for this) 
e|----------------------------------------------------------------------------------------------| 
B|----------------------------------------------------------------------------------------------| 
G|-----------------------------------0-2br-2--------------------------------------0-2-0---------| 
D|---------0-2-4-2----------0-2-4--2---------2----------0-2-4-2----------0-2-4--2-------4-------| 
A|-----0-2--------------0-2-------------------------0-2--------------0-2------------------------| 
E|-0-3--------------0-3-------------------------0-3--------------0-3----------------------------| 


Now for the outro just play the fingerpicked bit again, clean tone. Don't play it all, just the first couple 
of bars 


************************************ 

| /   slide up 
| \   slide down 
| h   hammer-on 
| p   pull-off 
| ~   vibrato 
| +   harmonic 
| x   Mute note 
| b   Bend 
| pb  Pre-bend 
| br  Bend release 
| pbr Pre-bend release 
| brb Bend release bend 

************************************ 
	  

Full key step upFull key step up
Half key step upHalf key step up
Half key step downHalf key step down
Full key step downFull key step down
Search Paypal
auto scroll beats size up size down change color hide chords drawings
tab show chords e-chords YouTube Clip e-chords hide all tabs e-chords go to top tab