Catfish And The Bottlemen

home > Catfish And The Bo...

Cocoon Tab

Catfish And The Bottlemen

Difficulty: nolevelnolevel

by ubirbomfim

tuner correct add songbook print version text version save to e-mail
chordsukulelecavacokeyboardtabbassdrumsharmonicsflute Guitar Pro
chords

Cocoon

Key:  Eb More
Cocoon Key A#A#
Cocoon Key BB
Cocoon Key CC
Cocoon Key C#C#(one step down)
Cocoon Key DD(half step down)
Cocoon Key EbEb(original key)
Cocoon Key EE(half step up)
Cocoon Key FF(one step up)
Cocoon Key F#F#
Cocoon Key GG
Cocoon Key G#G#
Cocoon Key AA
  		

I made a good start but can't figure out the guitar solo part so if anyone can help me out feel  
free to e-mail me and 
i'll add it in. 
Tuning: Standard 

     Intro 
e|---------------------------------------------------------------------------| 
B|---------------------------------------------------------------------------| 
G|----888888888888888888888888888888888888888888888--------------------------| 
D|----888888888888888888888888888888888888888888888--------------------------| 
A|----666666666666666666666666666666666666666666666--------------------------| 
E|---------------------------------------------------------------------------| 

   Verse (x2) 
e|---------------------------------------------------------------------------| 
B|---------------------------------------------------------------------------| 
G|------7~------10~------8~-------7~----7~-------------10~------8~-------7~--| 
D|----5~------8~------8~-------8~---------5~--------8~-------8~--------8~----| 
A|---------------------------------------------------------------------------| 
E|---------------------------------------------------------------------------| 

Pre-Chorus (Palm Mute) (x4) 
e|---------------------------------------------------------------------------| 
B|---------------------------------------------------------------------------| 
G|------------88888-----------101010-----------------------------------------| 
D|----55555---88888---88888---101010-----------------------------------------| 
A|----55555---66666---88888---88888------------------------------------------| 
E|----33333-----------66666--------------------------------------------------| 

Chorus (x2) 
e|---------------------------------------------------------------------------| 
B|---------------------------------------------------------------------------| 
G|---88888888----------------------------------------------------------------| 
D|---88888888---88888888---55555555---33333333-------------------------------| 
A|---66666666---88888888---55555555---33333333-------------------------------| 
E|--------------66666666---33333333---11111111-------------------------------| 

Verse two (x2) 
e|---------------------------------------------------------------------------| 
B|---------------------------------------------------------------------------| 
G|---------------------------------------------------------------------------| 
D|---------------------------------------------------------------------------| 
A|------5~-----8~-----6~-----5~----------------------------------------------| 
E|----3~-----6~-----6~-----6~------------------------------------------------| 

Pre-Chorus two (Palm Mute) (x4) 
e|---------------------------------------------------------------------------| 
B|---------------------------------------------------------------------------| 
G|------------88888-----------101010-----------------------------------------| 
D|----55555---88888---88888---101010-----------------------------------------| 
A|----55555---66666---88888---88888------------------------------------------| 
E|----33333-----------66666--------------------------------------------------| 

Chorus two (x4) 
e|---------------------------------------------------------------------------| 
B|---------------------------------------------------------------------------| 
G|---88888888----------------------------------------------------------------| 
D|---88888888---88888888---55555555---33333333-------------------------------| 
A|---66666666---88888888---55555555---33333333-------------------------------| 
E|--------------66666666---33333333---11111111-------------------------------| 

Interlude  (X4) Then................................ 4th time                                                 
e|---------------------------------------------------|-----------------------------| 
B|---------------------------------------------------|-----------------------------| 
G|-----888888888888888888888-------------------------|-----------------------------| 
D|-----888888888888888888888---55555555555555555555--|---3333333333----------------| 
A|-----666666666666666666666---55555555555555555555--|---3333333333----------------| 
E|-----------------------------33333333333333333333--|---1111111111----------------| 

  (x4) 
e|------------------------------------------------------------------------------5--6-------| 
B|-------------8--6-------------------------------------------------------------------8----| 
G|---88888888------------------7--5----------------------5--3------------------------------| 
D|---88888888---------88888888------------------55555555-------------33333333--------------| 
A|---66666666---------88888888------------------55555555-------------33333333--------------| 
E|--------------------66666666------------------33333333-------------11111111--------------| 

Last Chorus 
e|---------------------------------------------------------------------------| 
B|---------------------------------------------------------------------------| 
G|---88888888----------------------------------------------------------------| 
D|---88888888---88888888---55555555---33333333-------------------------------| 
A|---66666666---88888888---55555555---33333333-------------------------------| 
E|--------------66666666---33333333---11111111-------------------------------| 

Finish On 
e|---------------------------------------------------------------------------| 
B|---------------------------------------------------------------------------| 
G|---88888888888888888888888-------------------------------------------------| 
D|---88888888888888888888888-------------------------------------------------| 
A|---66666666666666666666666-------------------------------------------------| 
E|---------------------------------------------------------------------------| 

************************************ 

| /   slide up 
| \   slide down 
| h   hammer-on 
| p   pull-off 
| ~   vibrato 
| +   harmonic 
| x   Mute note 
| b   Bend 
| pb  Pre-bend 
| br  Bend release 
| pbr Pre-bend release 
| brb Bend release bend 

************************************ 
	  

Search Paypal
auto scroll beats size up size down change color hide chords drawings
tab show chords e-chords YouTube Clip e-chords hide all tabs e-chords go to top tab