Carus

You Were Gone

Carus

tabs

save to print version add songbook text version e-mail correct tuner
chordsukulelecavacokeyboardtabbassdrumsharmonicaflute Guitar Pro
close

there isn't a video lesson for this song

chords

You Were Gone

	  		tabbed by Damian Smith 
 
INTRO/VERSE 
    G6         D Dsus2      Am         C 
e|--0-------|--2--3----|----0---0-|----0---0-| 
B|--3-------|--3--3----|----1---1-|----1---1-| 
G|--0-------|--2--2----|----2---2-|----0---0-| 
D|--0-------|--0--0----|--0h2-0h2-|--0h2-0h2-| 
A|--2-------|----------|----0---0-|----3---3-| 
E|--3-------|----------|----------|----------| 
 
CHORUS 
    Em         G6           C          Am 
e|--0-------|--0-------|----0---0-|----0---0-| 
B|--0-------|--3-------|----1---1-|----1---1-| 
G|--0-------|--0-------|----0---0-|----2---2-| 
D|--2-------|--0-------|--0h2-0h2-|--0h2-0h2-| 
A|--2-------|--2-------|----3---3-|----0---0-| 
E|--0-------|--3-------|----------|----------| 
 
    Em         G6           C          Am 
e|--0-------|--0-------|----0---0-|----0-----| 
B|--0-------|--3-------|----1---1-|----1-----| 
G|--0-------|--0-------|----0---0-|----2-----| 
D|--2-------|--0-------|----2---2-|----2-----| 
A|--2-------|--2-------|----3---3-|----0-----| 
E|--0-------|--3-------|----------|----------| 
 
    G6         D Dsus2      Am          C 
e|--0-------|--2--3----|----0---0-|----0---0-| x2 
B|--3-------|--3--3----|----1---1-|----1---1-| 
G|--0-------|--2--2----|----2---2-|----0---0-| 
D|--0-------|--0--0----|--0h2-0h2-|--0h2-0h2-| 
A|--2-------|----------|----0---0-|----3---3-| 
E|--3-------|----------|----------|----------| 
 
End on a G 
		  

Full key step upFull key step up
Half key step upHalf key step up
Half key step downHalf key step down
Full key step downFull key step down
hide glossary

See also:

tabs Clare Bowditch - Autumn Bone tabs Joss Stone - Tell Me What We Are Gonna do Now tabs Hillsong Music Australia - Breathe on me tabs INXS - I Need You Tonight tabs The Atlantics - Bombora tabs INXS - New Sensation
e-chords

Other versions:

tabs Carus - You Were Gone
auto scroll beats size up size down change color hide chords drawings
tab show chords e-chords YouTube Clip e-chords hide all tabs e-chords go to top tab

share