Carus

Walk Before You Crawl

Carus

tabs

save to print version add songbook text version e-mail correct tuner
chordsukulelecavacokeyboardtabbassdrumsharmonicaflute Guitar Pro
close

there isn't a video lesson for this song

chords

Walk Before You Crawl

	  		Notes: I've done this for open tuning, but try a  or . 
       I know the outro isn't exactly the same as the intro but I'm slack. 
 
INTRO 
   F#m                         E        
e|--------0~-x--------0~-x---|--------0~-x---------------| 
B|---------------------------|-------------2h5---------5-| 
G|---2-x--2~-x---2-x--2~-x---|---1-x--1~-x-4---4-----4---| 
D|-4---x--4~-x-4---x--4~-x---|-2---x--2~-x-------4h6-----| 
A|---------------------------|---------------------------| 
E|---------------------------|---------------------------| 
 
   F#m                         E 
e|----------0~-----2-0-------|-----------0~-0---------------| 
B|---------------------0h2-5-|----------------2h5-5-------5-| 
G|-----2-x--2~---------------|------1-x--1~---4---------4---| 
D|---4---x--4~-(4)-----------|-4~\2---x--2~---------4h6-----| 
A|(4)------------------------|------------------------------| 
E|---------------------------|------------------------------| 
 
   F#m                           E        
e|--------0~-0-4h5p4-2-0h2p0-----------|--------0~-x---------------| 
B|---------------------------2---------|-------------2h5---------5-| 
G|---2-x--2~-------------------4h6p4\1-|---1-x--1~-x-4---4-----4---| 
D|-4---x--4~---------------------------|-2---x--2~-x-------4h6-----| 
A|-------------------------------------|---------------------------| 
E|-------------------------------------|---------------------------| 
 
   F#m                         E        
e|--------0~-x--------0~-x---|--------0~-x--------0~-x---| 
B|---------------------------|---------------------------| 
G|---2-x--2~-x---2-x--2~-x---|---1-x--1~-x---1-x--1~-x---| 
D|-4---x--4~-x-4---x--4~-x---|-2---x--2~-x-2---x--2~-x---| 
A|---------------------------|---------------------------| 
E|---------------------------|---------------------------| 
 
VERSE 1 
   F#m                         E        
e|--------0~-x--------0~-x---|--------0~-x--------0~-x---|   {x4} 
B|---------------------------|---------------------------| 
G|---2-x--2~-x---2-x--2~-x---|---1-x--1~-x---1-x--1~-x---| 
D|-4---x--4~-x-4---x--4~-x---|-2---x--2~-x-2---x--2~-x---| 
A|---------------------------|---------------------------| 
E|---------------------------|---------------------------| 
 
CHORUS 
   F#m                         E        
e|--------0~-x--------0~-x---|--------0~-x--------0~-x---|   {x4} 
B|---------------------------|---------------------------| 
G|---2-x--2~-x---2-x--2~-x---|---1-x--1~-x---1-x--1~-x---| 
D|-4---x--4~-x-4---x--4~-x---|-2---x--2~-x-2---x--2~-x---| 
A|---------------------------|---------------------------| 
E|---------------------------|---------------------------| 
 
VERSE 2 
 
CHORUS 
 
INTERLUDE 
 
OUTRO ("so many mistakes") (repeat similar to intro) 
 
finish on: 
e|-0-| 
B|-0-| 
G|-1-| 
D|-2-| 
A|---| 
E|---| 
		  

Full key step upFull key step up
Half key step upHalf key step up
Half key step downHalf key step down
Full key step downFull key step down
hide glossary

See also:

tabs Clare Bowditch - Autumn Bone tabs Joss Stone - Tell Me What We Are Gonna do Now tabs Hillsong Music Australia - Breathe on me tabs INXS - I Need You Tonight tabs The Atlantics - Bombora tabs INXS - New Sensation
e-chords

Other versions:

tabs Carus - Walk Before You Crawl
auto scroll beats size up size down change color hide chords drawings
tab show chords e-chords YouTube Clip e-chords hide all tabs e-chords go to top tab

share