Carus

Time Machine

Carus

tabs

save to print version add songbook text version e-mail correct tuner
chordsukulelecavacokeyboardtabbassdrumsharmonicaflute Guitar Pro
close

there isn't a video lesson for this song

chords

Time Machine

	  		If you prefer to strum rather than pick, the chords are G Cadd9 C Cmaj7 
 
Guitar 1 (Carus Thompson) 
   G           C 
e|-------------------------| 
B|-3-x-3-3/5-x-3-1-x-0-1-x-| 
G|-0-x-0-0---x-0-0-x-0-0-x-| 
D|-------------------------| 
A|-------------------------| 
E|-------------------------| 
 
or for a more bass feel: 
   G           C 
e|-------------------------| 
B|-3-x-3-3/5-x-3-1-x-0-1-x-| 
G|-0-x-0-0---x-0-0-x-0-0-x-| 
D|-0-x-0-0---x-2-2-x-2-2-x-| 
A|-------------------------| 
E|-------------------------| 
 
Guitar 2 (Dave Johnson) 
e|-------------------------| 
B|-------------------------| 
G|-------------------------| 
D|-5-5-5/7-3-3-------------| 
A|-------------------------| 
E|-------------------------| 
 
Sometimes he does variations, e.g. at 1:14 
e|-------------------------| 
B|-------------------------| 
G|-------------------------| 
D|-5-5-5h7-5-5h7-5---------| 
A|-------------------------| 
E|-------------------------| 

		  

Full key step upFull key step up
Half key step upHalf key step up
Half key step downHalf key step down
Full key step downFull key step down
hide glossary

See also:

tabs Beaverloop - Condesending tabs Baby Animals - One Word tabs The Beautiful Girls - Morning Sun tabs Hillsong Music Australia - jesus I long tabs Hillsong Music Australia - Song of Freedom tabs INXS - Need you tonight
e-chords

Other versions:

tabs Black Sabbath - Time Machine tabs Carus - Time Machine
auto scroll beats size up size down change color hide chords drawings
tab show chords e-chords YouTube Clip e-chords hide all tabs e-chords go to top tab

share