Carus

Sweet Mondays

Carus

tabs

save to print version add songbook text version e-mail correct tuner
chordsukulelecavacokeyboardtabbassdrumsharmonicaflute Guitar Pro
close

there isn't a video lesson for this song

chords

Sweet Mondays

	  		INTRO CHORDS         END OF INTRO CHORDS 
     E   F#m7           E/G#  A 
e|---0----0---|      |---x----x---| 
B|---0----0---|      |---x----x---| 
G|---9----9---|      |---9---14---| 
D|---6----7---|      |---9---11---| 
A|---7----9---|      |--11---12---| 
E|---x----x---|      |---x----x---| 
 
 
VERSE CHORDS         PRE-CHORUS CHORDS 
     E   F#m7           E/G#  A 
e|---0----0---|      |---x----x---| 
B|---0----0---|      |---x----x---| 
G|---9----9---|      |---9---14---| 
D|---6----7---|      |---9---11---| 
A|---7----9---|      |--11---12---| 
E|---x----x---|      |---x----x---| 
 
 
CHORUS CHORDS                POST-CHORUS CHORDS 
     A    B    E    A            B    B    A    A 
e|---x----x----x----x---|    |---x----x----x----x---| 
B|---5----7----x----5---|    |---7----7----5----5---| 
G|---6----8----9----6---|    |---8----8----6----6---| 
D|---7----9----6----7---|    |---9----9----7----7---| 
A|---7----9----7----7---|    |---9----9----7----7---| 
E|---x----x----0----x---|    |---x----x----x----x---| 
		  

Full key step upFull key step up
Half key step upHalf key step up
Half key step downHalf key step down
Full key step downFull key step down
hide glossary

See also:

tabs Clare Bowditch - Autumn Bone tabs Joss Stone - Tell Me What We Are Gonna do Now tabs Hillsong Music Australia - Breathe on me tabs INXS - I Need You Tonight tabs The Atlantics - Bombora tabs INXS - New Sensation
e-chords

Other versions:

tabs Carus - Sweet Mondays
auto scroll beats size up size down change color hide chords drawings
tab show chords e-chords YouTube Clip e-chords hide all tabs e-chords go to top tab

share