Carus

River Red, Sky Blue

Carus

tabs

save to print version add songbook text version e-mail correct tuner
chordsukulelecavacokeyboardtabbassdrumsharmonicaflute Guitar Pro
close

there isn't a video lesson for this song

chords

River Red, Sky Blue

	  		Notes: OK, this isn't an exact, perfect tab yet but it will be when I've finished writing my politics essay. 
 
 
 
INTRO 
e|---0-x-----x--------------------------|---0-x-----x-3--0-x---------------| 
B|-----x-3---x---0h1p0----0~--0h1p0-----|-----x-3---x-1--1-x-0~--0h1p0-----| 
G|-----x---0-x---------0--0~--------0---|-----x---0-x------x-0~--------0---| 
D|-----x-----x------------------------0-|-----x-----x------x-------------0-| 
A|-3---x-2---x-0------------------------|-3---x-2---x-0--0-x---------------| 
E|-----x-----x------------3-------------|-----x-----x------x-3-------------| 
 
e|-------x------x-----x-----x-----x-----x-----x---------------| 
B|----12-x-10---x-8---x-7---x-5---x-3---x-1/3-x-0~--0h1p0-----| 
G|-------x----0-x---0-x---0-x---0-x---0-x-2/4-x-0~--------0---| 
D|-------x------x-----x-----x-----x-----x-----x-------------0-| 
A|-10----x-9----x-7---x-5---x-3---x-2---x-0---x---------------| 
E|-------x------x-----x-----x-----x-----x-----x-3-------------| 
 
VERSE: Improvise around C G/B Am7 G with various endings and hammer-ons, e.g. 
e|---0-x-----x-----x------------x-| 
B|-----x-3---x-1---x-0--0h1p0---x-| 
G|-----x---0-x---0-x-0--------0-x-| 
D|-----x-----x-----x------------x-| 
A|-3---x-2---x-0---x------------x-| 
E|-----x-----x-----x-3----------x-| 
 
BRIDGE 
Will be arriving as soon as I find my guitar 

		  

See also:

tabs Clare Bowditch - Autumn Bone tabs Joss Stone - Tell Me What We Are Gonna do Now tabs Hillsong Music Australia - Breathe on me tabs INXS - I Need You Tonight tabs The Atlantics - Bombora tabs INXS - New Sensation
e-chords

Other versions:

tabs Carus - River Red, Sky Blue
auto scroll beats size up size down change color hide chords drawings
tab show chords e-chords YouTube Clip e-chords hide all tabs e-chords go to top tab

share