Carus

Regret

Carus

tabs

save to print version add songbook text version e-mail correct tuner
chordsukulelecavacokeyboardtabbassdrumsharmonicaflute Guitar Pro
close

there isn't a video lesson for this song

chords

Regret

	  		Strumming pattern is a guide only. 
 
 
 
INTRO/VERSE CHORDS 
   Fmaj7             C 
e|-0---0-0---0-----|-0---0-0-0-0-----|   x3 
B|-1---1-1---1-----|-1---1-1-1-1-----| 
G|-0h2-2-2---2-----|-0---0-0-0-0-----| 
D|-3---3-3---3-----|-0h2-2-2-2-2-----| 
A|-3---3-3---3-----|-3---3-3-3-3-----| 
E|-x---x-x---x-----|-----------------| 
 
   Am                G 
e|-0---0-0---0-0-0-|-------3---3-3-3-|   x1 
B|-0---0-0h1-1-1-1-|-------0---0-0-0-| 
G|-2---2-2---2-2-2-|-0---0-0---0-0-0-| 
D|-2---2-2---2-2-2-|-0---0-0---0-0-0-| 
A|-0---0-0---0-0-0-|-2---2-----------| 
E|-----------------|-3---3-----------| 
 
 
CHORUS CHORDS 
   G                 G                 C       C/B       Am 
e|-3---3-3---3-3-3-|-3---3-3---3-3-3-|-0---0-0-0---0-0-|-0---0-0---0-0-0-|   x2 
B|-0---0-0---0-0-0-|-0---0-0---0-0-0-|-1---1-1-1---1-1-|-1---1-1---1-1-1-| 
G|-0---0-0---0-0-0-|-0---0-0---0-0-0-|-0---0-0-0---0-0-|-2---2-2---2-2-2-| 
D|-0---0-0---0-0-0-|-0---0-0---0-0-0-|-2---2-2-0---0-0-|-2---2-2---2-2-2-| 
A|-2---2-2---2-2-2-|-2---2-2---2-2-2-|-3---3-3-2---2-2-|-0---0-0---0-0-0-| 
E|-3---3-3---3-3-3-|-3---3-3---3-3-3-|-----------------|-----------------| 
  "Maybe one day I'll only do the things I want..." 
  "Maybe one day I'll know a world I want..." 
 
   C                 G                 C       C/B       Am 
e|-0---0-0---0-0-0-|-3---3-3---3-3-3-|-0---0-0-0---0-0-|-0---0-0---0-0-0-| 
B|-1---1-1---1-1-1-|-0---0-0---0-0-0-|-1---1-1-1---1-1-|-1---1-0h1-1-1-0-| 
G|-0---0-0---0-0-0-|-0---0-0---0-0-0-|-0---0-0-0---0-0-|-2---2-2---2-2-2-| 
D|-2---2-2---2-2-2-|-0---0-0---0-0-0-|-2---2-2-0---0-0-|-2---2-2---2-2-2-| 
A|-3---3-3---3-3-3-|-2---2-2---2-2-2-|-3---3-3-2---2-2-|-0---0-0---0-0-0-| 
E|-----------------|-3---3-3---3-3-3-|-----------------|-----------------| 
   "Maybe one day I'll be wise..." 
 
   C                 G                 C                 C 
e|-0---0-0---0-0-0-|-3---3-3---3-3-3-|-0---0-0---0-0-0-|-0-0---0---0-0-0-| 
B|-1---1-1---1-1-1-|-0---0-0---0-0-0-|-1---1-1---1-1-1-|-1-1---1---1-1-1-| 
G|-0---0-0---0-0-0-|-0---0-0---0-0-0-|-0---0-0---0-0-0-|-0-0---0---0-0-0-| 
D|-2---2-2---2-2-2-|-0---0-0---0-0-0-|-2---2-2---2-2-2-|-2-2---2---2-2-2-| 
A|-3---3-3---3-3-3-|-2---2-2---2-2-2-|-3---3-3---3-3-3-|-3-3---3---3-3-3-| 
E|-----------------|-3---3-3---3-3-3-|-----------------|-----------------| 
   "When I'm sixty-five..." 
		  

Full key step upFull key step up
Half key step upHalf key step up
Half key step downHalf key step down
Full key step downFull key step down
hide glossary

See also:

tabs Beaverloop - Condesending tabs Baby Animals - One Word tabs The Beautiful Girls - Morning Sun tabs Hillsong Music Australia - jesus I long tabs Hillsong Music Australia - Song of Freedom tabs INXS - Need you tonight
e-chords

Other versions:

tabs Carus - Regret tabs John Frusciante - Regret tabs New Order - Regret tabs Drowning Pool - Regret tabs Avatar - Regret tabs Living with Lions - Regret Song
auto scroll beats size up size down change color hide chords drawings
tab show chords e-chords YouTube Clip e-chords hide all tabs e-chords go to top tab

share