Carus

One More Time

Carus

tabs

save to print version add songbook text version e-mail correct tuner
chordsukulelecavacokeyboardtabbassdrumsharmonicaflute Guitar Pro
close

there isn't a video lesson for this song

chords

One More Time

	  		INTRO/VERSE CHORDS 
     E   F#m 
e|---0----x---| 
B|---0----x---| 
G|---1----2---| 
D|---2----4---| 
A|---2----4---| 
E|---0----x---| 
 
 
CHORUS CHORDS 
     A   G#m  F#m   E 
e|---x----x----x----0---|   "One more song, one more tour..." 
B|---5----x----x----0---| 
G|---6----4----2----1---| 
D|---7----6----4----2---| 
A|---7----6----4----2---| 
E|---x----x----x----0---| 
 
     A   G#m  F#m   B 
e|---x----x----x----x---| 
B|---5----x----x----7---| 
G|---6----4----2----8---| 
D|---7----6----4----9---| 
A|---7----6----4----9---| 
E|---x----x----x----x---| 
 
 
BRIDGE CHORDS 
    G#m   A   F#m   B 
e|---x----x----x----x---|   "Babe I can call you, every night..." 
B|---x----5----x----7---| 
G|---4----6----2----8---| 
D|---6----7----4----9---| 
A|---6----7----4----9---| 
E|---x----x----x----x---| 
 
    G#m   A    B    
e|---x----x----x--------| 
B|---x----5----7--------| 
G|---4----6----8--------| (pause-->break) 
D|---6----7----9--------| 
A|---6----7----9--------| 
E|---x----x----x--------| 
 
 
BREAK CHORDS 
     E   F#m  G#m   A   G#m   A   G#m  F#m 
e|---0----x----x----x----x----x----x----x---| 
B|---0----x----x----5----x----5----x----x---| 
G|---1----2----4----6----4----6----4----2---| 
D|---2----4----6----7----6----7----6----4---| 
A|---2----4----6----7----6----7----6----4---| 
E|---0----x----x----x----x----x----x----x---| 
 
End on E 
		  

Full key step upFull key step up
Half key step upHalf key step up
Half key step downHalf key step down
Full key step downFull key step down
hide glossary

See also:

tabs Beaverloop - Condesending tabs Baby Animals - One Word tabs The Beautiful Girls - Morning Sun tabs Hillsong Music Australia - jesus I long tabs Hillsong Music Australia - Song of Freedom tabs INXS - Need you tonight
e-chords

Other versions:

tabs Carus - One More Time tabs Daft Punk - One More Time tabs Flaw - One More Time tabs Korn - One More Time tabs Hammerfall - One More Time tabs Reckless Love - One More Time
auto scroll beats size up size down change color hide chords drawings
tab show chords e-chords YouTube Clip e-chords hide all tabs e-chords go to top tab

share