Carus

Darwin Jam

Carus

tabs

save to print version add songbook text version e-mail correct tuner
chordsukulelecavacokeyboardtabbassdrumsharmonicaflute Guitar Pro
close

there isn't a video lesson for this song

chords

Darwin Jam

	  		
INTRO/VERSE CHORDS 
    Em  Emadd9 
e|---3----2---| 
B|---0----0---| 
G|---0----0---| 
D|---2----2---| 
A|---2----2---| 
E|---0----0---| 
 
 
CHORUS CHORDS 
     C    G    Em   F 
e|---0----3----0----x---| 
B|---1----3----0----1---| 
G|---0----0----0----2---| 
D|---2----0----2----3---| 
A|---3----2----2----3---| 
E|--------3----0----x---| 
 
     C    G    Em   F 
e|---0----3----0----x--x--x--x---| 
B|---1----3----0----1--1--1--1---| 
G|---0----0----0----2--0--2--0---| 
D|---2----0----2----3--3--3--3---| 
A|---3----2----2----3--3--3--3---| 
E|--------3----0----x--x--x--x---| 
 
End on Em 

		  

See also:

tabs Beaverloop - Condesending tabs Baby Animals - One Word tabs The Beautiful Girls - Morning Sun tabs Hillsong Music Australia - jesus I long tabs Hillsong Music Australia - Song of Freedom tabs INXS - Need you tonight
e-chords

Other versions:

tabs Carus - Darwin Jam
auto scroll beats size up size down change color hide chords drawings
tab show chords e-chords YouTube Clip e-chords hide all tabs e-chords go to top tab

share