Carus

Clinically Dumb

Carus

tabs

save to print version add songbook text version e-mail correct tuner
chordsukulelecavacokeyboardtabbassdrumsharmonicaflute Guitar Pro
close

there isn't a video lesson for this song

chords

Clinically Dumb

	  		Released On: Capital City vs The Bangkok Lady Boys EP 
 
Transcribed by Paul @ OzTabs ([email protected]) 
www.ozmusic-central.com.au/oztabs 
 
Notes: Here's the three main progressions for the song. 
Comments and corrections welcome. 
 
 
INTRO / VERSE: 
E-|-------------------------------------|- 
B-|-------------------------------------|- 
G-|-------------------------------------|- 
D-|-------------------------------------|- 
A-|---------3-7-7-7-7-7-7-7-7-7-7-7-7-7-|- 
E-|-3-3-5-5---5-5-5-5-5-5-5-5-5-5-5-5-5-|- 
 
PRE CHORUS: 
E-|--------------------------------------------------------|- 
B-|--------------------------------------------------------|- 
G-|-7--7-7--7-7---------------------9--9--9--9--9--9--9--9-|- 
D-|-7--7-7--7-7--7--7-7--7-7--------9--9--9--9--9--9--9--9-|- 
A-|-5--5-5--5-5--7--7-7--7-7--(x3)--7--7--7--7--7--7--7--7-|- 
E-|--------------5--5-5--5-5-------------------------------|- 
 
CHORUS 
E-|--------------------------|- 
B-|--------------------------|- 
G-|--------------7--7-7--7-7-|- 
D-|-7--7-7--7-7--7--7-7--7-7-|-(x 4) 
A-|-7--7-7--7-7--5--5-5--5-5-|- 
E-|-5--5-5--5-5--------------|- 
 
 

		  

See also:

tabs Beaverloop - Condesending tabs Baby Animals - One Word tabs The Beautiful Girls - Morning Sun tabs Hillsong Music Australia - jesus I long tabs Hillsong Music Australia - Song of Freedom tabs INXS - Need you tonight
e-chords

Other versions:

tabs Capital City - Clinically Dumb tabs Carus - Clinically Dumb
auto scroll beats size up size down change color hide chords drawings
tab show chords e-chords YouTube Clip e-chords hide all tabs e-chords go to top tab

share