Carus

Broken Song

Carus

tabs

save to print version add songbook text version e-mail correct tuner
chordsukulelecavacokeyboardtabbassdrumsharmonicaflute Guitar Pro
close

there isn't a video lesson for this song

chords

Broken Song

	  		This tab is for the cover by Carus on Long Nights Are Gone. 
Listen to the album to get Carus's wicked reggae playing style. 
I revised this after seeing him live, so it's pretty much 100%. 
 
INTRO CHORDS 
     D           A           Bm          G 
e|---2-------|---0---0---|---2---2-2-|-------3---| 
B|---3-------|---2---3---|---3---2-3-|---3---3---| 
G|---2-------|---2---2---|---4---2-4-|---4---0---| 
D|---0-------|---2---2---|---4---2-4-|---5---5---| 
A|-----------|---0---0---|---2---2-2-|---5---5---| 
E|-----------|-----------|-----------|-----------| 
 
 
VERSE CHORDS 
     D           A           Bm          G 
e|---2---3---|---0---0---|---2---2-2-|---x---3---| 
B|---3---3---|---2---3---|---3---2-3-|---3---3---| 
G|---2---2---|---2---2---|---4---2-4-|---4---0---| 
D|---0---0---|---2---2---|---4---2-4-|---5---5---| 
A|-----------|---0---0---|---2---2-2-|---5---5---| 
E|-----------|-----------|-----------|---x---x---| 
 
 
CHORUS CHORDS 
     A           Bm          G           D 
e|---0---0---|---2---2-2-|---x---3---|---2---3---| 
B|---2---3---|---3---2-3-|---3---3---|---3---3---| 
G|---2---2---|---4---2-4-|---4---0---|---2---2---| 
D|---2---2---|---4---2-4-|---5---5---|---0---0---| 
A|---0---0---|---2---2-2-|---5---5---|-----------| 
E|-----------|-----------|---x---x---|-----------| 
  "Now the songline is broken..." 
 
 
POST-CHORUS 
     A         A       Bm           Bsus2 
e|---0---------0---------------------------------| 
B|---2---------2-------------3-----3-----2-------| 
G|---2---------2---------------4-----4-----4-----| 
D|---2---------2---------4-------4-----4-----4---| 
A|---0---------0-------2---2---------------------| 
E|-----------------------------------------------| 
 
     G         A     ***D      A      Bm    G 
e|---x---------x---------------------------------|    *** Back to verse chords 
B|---3---------5---------------------------------|        from this point. 
G|---4---------6---------------------------------| 
D|---5---------7---------------------------------| 
A|---5---------7---------------------------------| 
E|---x---------x---------------------------------| 
  "Jesus can you mend this broken song..." 
 
 
End on D 
		  

Full key step upFull key step up
Half key step upHalf key step up
Half key step downHalf key step down
Full key step downFull key step down
hide glossary

See also:

tabs Beaverloop - Condesending tabs Baby Animals - One Word tabs The Beautiful Girls - Morning Sun tabs Hillsong Music Australia - jesus I long tabs Hillsong Music Australia - Song of Freedom tabs INXS - Need you tonight
e-chords

Other versions:

tabs Carus - Broken Song tabs Jim Ward - Broken Songs
auto scroll beats size up size down change color hide chords drawings
tab show chords e-chords YouTube Clip e-chords hide all tabs e-chords go to top tab

share