Cantor Cristão

home > Cantor Cristão

Santo Tab

Cantor Cristão

Difficulty: nolevelnolevel

by HELON

tuner correct add songbook print version text version save to e-mail
chordsukulelecavacokeyboardtabbassdrumsharmonicsflute Guitar Pro
chords

Santo

  		



E|-------------------------------------------------------------------------------------------| 
B|--------------------------------------------------------1--0-------------------------------| 
G|---------------0---0---2--2--2--2--2-0------0--0--0--0--------0-----0---2--0--0------------| 
D|-------2---2------------------------------2-----------------------0---------------------2--| 
A|--3--3----------------------------------------------------------------------------3--3-----| 
E|-------------------------------------------------------------------------------------------| 


E|--------------------------------------------------------------------------| 
B|-------------------------------1------------------------------------------| 
G|------0--0---2--2---2-2--0--0-----0---0--2--------------------------------|  :< 4x 
D|--2-----------------------------------------2---3--0--0-------------------| 
A|----------------------------------------------------------3---3-----------| 
E|--------------------------------------------------------------------------| 
	  

Search Paypal
auto scroll beats size up size down change color hide chords drawings
tab show chords e-chords YouTube Clip e-chords hide all tabs e-chords go to top tab