Cannibal Corpse

Encased In Concrete

Cannibal Corpse

tabs Expert expert

by  ANG-LETRA

save to print version add songbook text version e-mail correct tuner
chordsukulelecavacokeyboardtabbassdrumsharmonicaflute Guitar Pro
close

there isn't a video lesson for this song

chords

Encased In Concrete

	  		

Tuning: A# F C# G# D# A# 

Intro Riff (Riff No.1) 
|---------------|---------------| 
|---------------|---------------| 
|*--------------|--------------*| 
|*--7-6---------|---7-6--------*| 
|---5-4---5-4---|---5-4---5-3---| 
|---------3-2---|---------3-2---| 
Guitar 2 
(played underneath((At the same time)) as Riff No.1) 
|---------------------------------------| 
|---------------------------------------| 
|*----------------------------------2--*| 
|*-------------------------------53--52*| 
|---------------------------------------| 
|0000000000000000000000000000000--------| 

Riff No.2 GTR-1 
|-------------------------|--------------------------------------| 
|-------------------------|--------------------------------------| 
|*------------------------|-------------------------5-4---2-----*| 
|*---7-6------------------|----------7-6------------3-2-53--532-*| 
|----5-4-------------5-4--|----------5-4-------------------------| 
|-------00000000000--3-2--|000000000-----0000000000--------------|  
      PM===========     PM==========   PM========== 

GTR-2 I am NOT at the skill level to tab out the solo yet. Sorry. 
|-----------SOLO------------------------------------------------------------| 
|------SOLO-------SOLO------------------------------------------------------| 
|--SOLO-----------------SOLO------------------------------------------------| 
|---------------------------SOLO--------------------------------------------| 
|-------------------------------SOLO----------------------------------------| 
|-----------------------------------SOLO-----------------------------------| 

Riff No.3 both gtrs *(see notes at bottom)* 
|-------------------------------------------------------------|--------| 
|-------------------------------------------------------------|--------| 
|*------------------------------------------------------------|-------*| 
|*------------------------------------------------------------|-7-4---*| 
|-9-7-9-7-7-5-7-5-7-5-9-7-9-7-7-5-7-5-7-5-9-7-9-7-7-5-7-5-7-5-|-5-2-4--| 
|-------------------------------------------------------------|-----2--| 

Riff No.4 both gtrs *(see notes)* 
|---------------------------------|---------------------------------------| 
|---------------------------------|---------------------------------------| 
|*--------------------------------|--------------------------------------*| 
|*--------------------------------|--------------------------------------*| 
|-5-7-5-7-5-4-5-4-5-7-5-7-5-4-5-4-|-7/10-5h7-7/10-5h7-7/10-5h7-7/10-5h7---| 
|---------------------------------|---------------------------------------| 
PM=============================== 
Fill for Riff No.4 
|---------------------------------| 
|---------------------------------| 
|---------------------------------| 
|---------------------------------| 
|-5-7-5-7-5-4-5-4-5-7-5-7-5-4-5-4-| 
|---------------------------------| 
PM================================ 

Riff No.5 
|--------------------------|----------------------| 
|--------------------------|----------------------| 
|*-------------------------|-----------5-4-2-3-2-*| 
|*--------7-6--------------|----7-6----3-2-0-1-0-*| 
|---------5-4----5-6-3-4-2-|----5-4---------------| 
|----------------3-4-1-2-0-|----------------------| 
              PM                    PM 
Riff No.6 
|---------------------------------|--------------------------------| 
|---------------------------------|--------------------------------| 
|*--------------------------------|--------------------------------| 
|*--------------------------------|-----------33332222111122222111-| 
|---55554444-2--------------------|-55554444-2---------------------| 
|------------0--33334444111122220-|----------0---------------------| 
             PM                              PM    
|----------------------------|---------------------------| 
|----------------------------|---------------------------| 
|----------------------------|---------------------------| 
|----------------------------|------------3333322221-2-1-| 
|55554444-2------------------|---555444-2----------------| 
|---------0-33334444111122220|----------0----------------| 
         PM                                      PM=====  
|---------------------------------|---------------------------------| 
|---------------------------------|---------------------------------| 
|*--------------------------------|---------------------------------| 
|*--------------------------------|-----------33332222111122222111--| 
|---55554444-2--------------------|-55554444-2----------------------| 
|------------0--33334444111122220-|----------0----------------------| 
             PM                              PM    
|----------------------------|--------------------------------| 
|----------------------------|--------------------------------| 
|----------------------------|-------------------------------*| 
|----------------------------|------------3333222211112~-1~--*| 
|55554444-2------------------|-55554444-2---------------------| 
|---------0-44445555111122220|----------0---------------------| 
         PM                             PM 


Riff No.7 *(see notes at bottom)* 
|-----------------------------| 
|-----------------------------| 
|*---------------------------*| 
|*---------555---------------*| 
|----------444---4-3-1--------| 
|-0-000-0-----00-------3-2-1-0| 
PM========    ==     ======== 

|-----------------------------| 
|-----------------------------| 
|*---------------------------*| 
|*---------555---------------*| 
|----------444---4-3-1--------| 
|-0-000-0-----00-------3-2-1^-| 
PM========    ==     ===== 

Fill  
|-----------------------------| 
|-----------------------------| 
|*---------------------------*| 
|*---------555---------------*| 
|----------444---4-3-1--------| 
|-0-000-0-----00-------3-2-1-0| 
PM========    ==     ======== 

Riff No.8*(see notes at bottom)* 
|-------------|-------------------| 
|-------------|-------------------| 
|-------------|------------------*| 
|-------------|--------------1-2-*| 
|-1-----------|--2----------------| 
|---3-2-1-1-0-|----3-2-1-1-0------| 
  PM=========    PM======== 

Riff No.9 
|---------------------------------|--------------------| 
|---------------------------------|--------------------| 
|*--------------------------------|-------------------*| 
|*--------------------------------|--7-6--------------*| 
|-5-7-5-7-5-4-5-4-5-7-5-7-5-4-5-4-|--5-4--5-6-3-4-2----| 
|---------------------------------|-------3-4-1-2-0----| 


Riff No.10 
|-------------------------------------|------------------| 
|-------------------------------------|------------------| 
|*------------------------------------|-------5-4-2-3-2-*| 
|*------------------------------------|--7-6--3-2-0-1-0-*| 
|-7/10-5h7-7/10-5h7-7/10-5h7-7/10-5h7-|--5-4-------------| 
|-------------------------------------|------------------| 


Riff No.11 
|--------------------------------------------| 
|--------------------------------------------| 
|*------------------------------------------*| 
|*---------5555-----------------------------*| 
|---------------------44444------------------| 
|-2220000-----00002222-----22223333666665555-| 

Riff No.12 
|----------------------------------| 
|----------------------------------| 
|---------------------5-4-----2----| 
|---7-6---------7-6---3-2---53-532-| 
|---5-4---5-4---5-4----------------| 
|---------3-2----------------------| 


Order of the Song!!!!! 

Riff No.1 X2 
Riff No.2 X4 
Riff No.3 X1 
Riff No.4 X3 End with Fill. 
Riff No.5 X2 
Riff No.6 X1 
Riff No.7 X1 
Riff No.8 X1 
Riff No.7 X1 
Riff No.8 X1 
Riff No.9 X1 
Riff No.10 X1 
Riff No.9 X1 
Riff No.10 X1 
Riff No.11 X4 
Riff No.7 X1 
Riff No.8 X1 
Riff No.7 X1 
Riff No.8 X1 
Riff No.12 X2 
Riff No.6 X1 
Riff No.12 X4 
Riff No.1 X1 
Riff No.2 X3 
Riff No.3 X1 
End.... 



| /   slide up 
| \   slide down 
| h   hammer-on 
| p   pull-off 
| ~   vibrato 
| +   harmonic 
| x   Mute note 
| b   Bend 
| pb  Pre-bend 
| br  Bend release 
| pbr Pre-bend release 
| brb Bend release bend 

*********************************** 
		  

auto scroll beats size up size down change color hide chords drawings
tab show chords e-chords YouTube Clip e-chords hide all tabs e-chords go to top tab

share