Canned Heat

home > Canned Heat

Human Condition Tab

Canned Heat

Difficulty: nolevelnolevel

by joaoewerton

tuner correct add songbook print version text version save to e-mail
chordsukulelecavacokeyboardtabbassdrumsharmonicsflute Guitar Pro
chords

Human Condition

  		"Well it's a low down kind of condition, 
thats been swirling 'round my brain..." 
E|-----------------------------| 
B|-----------------------------| 
G|-----------------------------| 
D|---------7-7-----------------| 
A|------------6-6--------------| 
E|-----5-5---------------------| 

"Well I went* to the doctor* sat* down on her bed*, 
looked* up right at* her and this*(let this one ring)is what she said..." 
E|-----------------------------| 
B|-----------------------------| 
G|-------------------5---------| 
D|-------7-----------5---------| 
A|-------7---------3-----------| 
E|-----5-----------------------| 

(Start on "human") 

"Your in a human condition, 
E|--------------------------------------| 
B|--------------------------------------| 
G|------7--7----5----4---4-4-4-4-4-4-4--| 
D|------7--7----5----4---4-4-4-4-4-4-4--| 
A|-----5--5----3----2---2-2-2-2-2-2-2---| 
E|--------------------------------------| 

that's what got you down, 
E|--------------------------------------| 
B|--------------------------------------| 
G|------7--7----5----4---4-4-4-4-4-4-4--| 
D|------7--7----5----4---4-4-4-4-4-4-4--| 
A|-----5--5----3----2---2-2-2-2-2-2-2---| 
E|--------------------------------------| 

human condition..." 
E|--------------------------------------| 
B|--------------------------------------| 
G|------7--7----5----4---4-4-4-4-4-4-4--| 
D|------7--7----5----4---4-4-4-4-4-4-4--| 
A|-----5--5----3----2---2-2-2-2-2-2-2---| 
E|--------------------------------------| 

"Faces full of frowns, 
E|----------------------------------------| 
B|----------------------------------------| 
G|----------------------------------------| 
D|------5--5--5-5----7---7-7-7-7-7-7------| 
A|------5--5--5-5----7---7-7-7-7-7-7------| 
E|-----3--3--3-3----5---5-5-5-5-5-5-------| 

got to stand your ground..." 
E|----------------------------------------| 
B|----------------------------------------| 
G|----------------------------------------| 
D|------5--5--5-5----7---7-7-7-7-7-7------| 
A|------5--5--5-5----7---7-7-7-7-7-7------| 
E|-----3--3--3-3----5---5-5-5-5-5-5-------| 
	  

Search Paypal
auto scroll beats size up size down change color hide chords drawings
tab show chords e-chords YouTube Clip e-chords hide all tabs e-chords go to top tab