Cancer Bats

Bricks And Mortar

Cancer Bats

tabs

by  EDSOOLIVEIRA

save to print version add songbook text version e-mail correct tuner
chordsukulelecavacokeyboardtabbassdrumsharmonicaflute Guitar Pro
close

there isn't a video lesson for this song

chords

Bricks And Mortar

	  		

Tuning: C G C F A D 

  Q=117 
 4/4 
  Gtr I 
  H    E E   E  E   E S S S   S S S E S S S   S S S 
|-----------------|---------------------------------| 
|-----------------|---------------------------------| 
|-----------------|---------------------------------| 
|-----------------|-0---------------0---------------| 
|-----------------|-0-0-0-------0-0-0-0-0-------0-0-| 
|--------3-/12\-3-|-0-0-0-9-/12-0-0-0-0-0-9-/12-0-0-| 


  E S S S   S S S E E   E  E 
|-----------------------------| 
|-----------------------------| 
|-----------------------------| 
|-0---------------0-----------| 
|-0-0-0-------0-0-0-----------| 
|-0-0-0-9-/12-0-0-0-3-/12\-3--| 


  E S S S   S S S E S S S   S S S   E S S S   S S S E E   E  E    H    Q  Q 
|---------------------------------|----------------------------|-------------| 
|---------------------------------|----------------------------|-------------| 
|---------------------------------|----------------------------|-------------| 
|-0---------------0---------------|-0---------------0----------|-10----9--3--| 
|-0-0-0-------0-0-0-0-0-------0-0-|-0-0-0-------0-0-0----------|-10----9--3--| 
|-0-0-0-9-/12-0-0-0-0-0-9-/12-0-0-|-0-0-0-9-/12-0-0-0-3-/12\-3-|-10----9--3--| 


  E S S S   S S S E S S S   S S S   E S S S   S S S E E   E  E 
|---------------------------------|----------------------------| 
|---------------------------------|----------------------------| 
|---------------------------------|----------------------------| 
|-0---------------0---------------|-0---------------0----------| 
|-0-0-0-------0-0-0-0-0-------0-0-|-0-0-0-------0-0-0----------| 
|-0-0-0-9-/12-0-0-0-0-0-9-/12-0-0-|-0-0-0-9-/12-0-0-0-3-/12\-3-| 


  E S S S   S S S E S S S   S S S   E S S S   S S S E E   E  E 
|---------------------------------|----------------------------| 
|---------------------------------|----------------------------| 
|---------------------------------|----------------------------| 
|-0---------------0---------------|-0---------------0----------| 
|-0-0-0-------0-0-0-0-0-------0-0-|-0-0-0-------0-0-0----------| 
|-0-0-0-9-/12-0-0-0-0-0-9-/12-0-0-|-0-0-0-9-/12-0-0-0-3-/12\-3-| 


  E S S S   S S S E S S S   S S S   E S S S   S S S E E   E  E 
|---------------------------------|----------------------------| 
|---------------------------------|----------------------------| 
|---------------------------------|----------------------------| 
|-0---------------0---------------|-0---------------0----------| 
|-0-0-0-------0-0-0-0-0-------0-0-|-0-0-0-------0-0-0----------| 
|-0-0-0-9-/12-0-0-0-0-0-9-/12-0-0-|-0-0-0-9-/12-0-0-0-3-/12\-3-| 


  E S S S   S S S E S S S   S S S   E S S S   S S S E E   E  E    H    Q  Q 
|---------------------------------|----------------------------|-------------| 
|---------------------------------|----------------------------|-------------| 
|---------------------------------|----------------------------|-------------| 
|-0---------------0---------------|-0---------------0----------|-10----9--3--| 
|-0-0-0-------0-0-0-0-0-------0-0-|-0-0-0-------0-0-0----------|-10----9--3--| 
|-0-0-0-9-/12-0-0-0-0-0-9-/12-0-0-|-0-0-0-9-/12-0-0-0-3-/12\-3-|-10----9--3--| 


  H    Q  Q    E S S S   S S S E S S S   S S S   E S S S   S S S E E   E  E 
|------------|---------------------------------|----------------------------| 
|------------|---------------------------------|----------------------------| 
|------------|---------------------------------|----------------------------| 
|-6----5--1--|-0---------------0---------------|-0---------------0----------| 
|-6----5--1--|-0-0-0-------0-0-0-0-0-------0-0-|-0-0-0-------0-0-0----------| 
|-6----5--1--|-0-0-0-9-/12-0-0-0-0-0-9-/12-0-0-|-0-0-0-9-/12-0-0-0-3-/12\-3-| 


  Q  Q  Q  Q    S S S S S E. Q  Q    Q  Q  Q  Q    S S S S E E E E Q 
|-------------|--------------------|-------------|--------------------| 
|-------------|--------------------|-------------|--------------------| 
|-------------|--------------------|-------------|--------------------| 
|-0--8--7--6--|-0---0---6-8--7--6--|-0--8--7--6--|-0---0---6-8-7-0-3--| 
|-0--8--7--6--|-0---0---6-8--7--6--|-0--8--7--6--|-0---0---6-8-7-0-3--| 
|-0--8--7--6--|-0---0---6-8--7--6--|-0--8--7--6--|-0---0---6-8-7-0-3--| 


  E S S S   S S S E S S S   S S S   E S S S   S S S E E   E  E 
|---------------------------------|----------------------------| 
|---------------------------------|----------------------------| 
|---------------------------------|----------------------------| 
|-0---------------0---------------|-0---------------0----------| 
|-0-0-0-------0-0-0-0-0-------0-0-|-0-0-0-------0-0-0----------| 
|-0-0-0-9-/12-0-0-0-0-0-9-/12-0-0-|-0-0-0-9-/12-0-0-0-3-/12\-3-| 


  E S S S   S S S E S S S   S S S   E S S S   S S S E E   E  E    H    Q  Q 
|---------------------------------|----------------------------|-------------| 
|---------------------------------|----------------------------|-------------| 
|---------------------------------|----------------------------|-------------| 
|-0---------------0---------------|-0---------------0----------|-10----9--3--| 
|-0-0-0-------0-0-0-0-0-------0-0-|-0-0-0-------0-0-0----------|-10----9--3--| 
|-0-0-0-9-/12-0-0-0-0-0-9-/12-0-0-|-0-0-0-9-/12-0-0-0-3-/12\-3-|-10----9--3--| 


  E S S S   S S S E S S S   S S S   E S S S   S S S E E   E  E 
|---------------------------------|----------------------------| 
|---------------------------------|----------------------------| 
|---------------------------------|----------------------------| 
|-0---------------0---------------|-0---------------0----------| 
|-0-0-0-------0-0-0-0-0-------0-0-|-0-0-0-------0-0-0----------| 
|-0-0-0-9-/12-0-0-0-0-0-9-/12-0-0-|-0-0-0-9-/12-0-0-0-3-/12\-3-| 


  E S S S   S S S E S S S   S S S   E S S S   S S S E E   E  E 
|---------------------------------|----------------------------| 
|---------------------------------|----------------------------| 
|---------------------------------|----------------------------| 
|-0---------------0---------------|-0---------------0----------| 
|-0-0-0-------0-0-0-0-0-------0-0-|-0-0-0-------0-0-0----------| 
|-0-0-0-9-/12-0-0-0-0-0-9-/12-0-0-|-0-0-0-9-/12-0-0-0-3-/12\-3-| 


  E S S S   S S S E S S S   S S S   E S S S   S S S E E   E  E 
|---------------------------------|----------------------------| 
|---------------------------------|----------------------------| 
|---------------------------------|----------------------------| 
|-0---------------0---------------|-0---------------0----------| 
|-0-0-0-------0-0-0-0-0-------0-0-|-0-0-0-------0-0-0----------| 
|-0-0-0-9-/12-0-0-0-0-0-9-/12-0-0-|-0-0-0-9-/12-0-0-0-3-/12\-3-| 


  E S S S   S S S E S S S   S S S   E S S S   S S S E E   E  E    H    Q  Q 
|---------------------------------|----------------------------|-------------| 
|---------------------------------|----------------------------|-------------| 
|---------------------------------|----------------------------|-------------| 
|-0---------------0---------------|-0---------------0----------|-10----9--3--| 
|-0-0-0-------0-0-0-0-0-------0-0-|-0-0-0-------0-0-0----------|-10----9--3--| 
|-0-0-0-9-/12-0-0-0-0-0-9-/12-0-0-|-0-0-0-9-/12-0-0-0-3-/12\-3-|-10----9--3--| 


  H    Q  Q    E S S S   S S S E S S S   S S S   E S S S   S S S E E   E  E 
|------------|---------------------------------|----------------------------| 
|------------|---------------------------------|----------------------------| 
|------------|---------------------------------|----------------------------| 
|-6----5--1--|-0---------------0---------------|-0---------------0----------| 
|-6----5--1--|-0-0-0-------0-0-0-0-0-------0-0-|-0-0-0-------0-0-0----------| 
|-6----5--1--|-0-0-0-9-/12-0-0-0-0-0-9-/12-0-0-|-0-0-0-9-/12-0-0-0-3-/12\-3-| 


  Q  Q  Q  Q    S S S S S E. Q  Q    Q  Q  Q  Q    S S S S E E E E Q 
|-------------|--------------------|-------------|--------------------| 
|-------------|--------------------|-------------|--------------------| 
|-------------|--------------------|-------------|--------------------| 
|-0--8--7--6--|-0---0---6-8--7--6--|-0--8--7--6--|-0---0---6-8-7-0-3--| 
|-0--8--7--6--|-0---0---6-8--7--6--|-0--8--7--6--|-0---0---6-8-7-0-3--| 
|-0--8--7--6--|-0---0---6-8--7--6--|-0--8--7--6--|-0---0---6-8-7-0-3--| 


  Q  Q  Q  Q    S S S S S E. Q  Q    Q  Q  Q  Q    S S S S E E E E Q 
|-------------|--------------------|-------------|--------------------| 
|-------------|--------------------|-------------|--------------------| 
|-------------|--------------------|-------------|--------------------| 
|-0--8--7--6--|-0---0---6-8--7--6--|-0--8--7--6--|-0---0---6-8-7-0-3--| 
|-0--8--7--6--|-0---0---6-8--7--6--|-0--8--7--6--|-0---0---6-8-7-0-3--| 
|-0--8--7--6--|-0---0---6-8--7--6--|-0--8--7--6--|-0---0---6-8-7-0-3--| 


  E S S S S S S S S S S S S S S   E S S S S S S S S S S Q 
|-------------------------------|--------------------------| 
|-------------------------------|--------------------------| 
|-------------------------------|--------------------------| 
|-------------------------------|--------------------------| 
|-0-----------------------------|-0------------------------| 
|-0-6p0-8p0-7p0-6p0-5p0-4p0-4p0-|-0-6p0-8p0-7p0-6p0-5p0-3--| 


  E S S S S S S S S S S S S S S   E S S S S S S S S S S Q 
|-------------------------------|--------------------------| 
|-------------------------------|--------------------------| 
|-------------------------------|--------------------------| 
|-------------------------------|--------------------------| 
|-0-----------------------------|-0------------------------| 
|-0-6p0-8p0-7p0-6p0-5p0-4p0-4p0-|-0-6p0-8p0-7p0-6p0-5p0-3--| 


  E S S S S S S S S S S S S S S   E S S S S S S S S S S Q 
|-------------------------------|--------------------------| 
|-------------------------------|--------------------------| 
|-------------------------------|--------------------------| 
|-------------------------------|--------------------------| 
|-0-----------------------------|-0------------------------| 
|-0-6p0-8p0-7p0-6p0-5p0-4p0-4p0-|-0-6p0-8p0-7p0-6p0-5p0-3--| 


  E S S S S S S S S S S S S S S   E S S S S S S S S S S Q 
|-------------------------------|--------------------------| 
|-------------------------------|--------------------------| 
|-------------------------------|--------------------------| 
|-------------------------------|--------------------------| 
|-0-----------------------------|-0------------------------| 
|-0-6p0-8p0-7p0-6p0-5p0-4p0-4p0-|-0-6p0-8p0-7p0-6p0-5p0-3--| 


  E S S S S S S S S S S S S S S   E S S S S S S S S S S Q 
|-------------------------------|--------------------------| 
|-------------------------------|--------------------------| 
|-------------------------------|--------------------------| 
|-------------------------------|--------------------------| 
|-0-----------------------------|-0------------------------| 
|-0-6p0-8p0-7p0-6p0-5p0-4p0-4p0-|-0-6p0-8p0-7p0-6p0-5p0-3--| 


  E S S S S S S S S S S S S S S 
|-------------------------------| 
|-------------------------------| 
|-------------------------------| 
|-------------------------------| 
|-0-----------------------------| 
|-0-6p0-8p0-7p0-6p0-5p0-4p0-4p0-| 


  E S S S S S S S S S S Q    E E Q     E E +Q 
|--------------------------|---------------------| 
|--------------------------|---------------------| 
|--------------------------|---------------------| 
|--------------------------|-0---------0---------| 
|-0------------------------|-0-7-------0-3-(3)---| 
|-0-6p0-8p0-7p0-6p0-5p0-3--|-0-7-8b9===0-3-(3)---| 


  E E Q     E E +Q     E E Q     E E +Q     E E Q     E E Q 
|--------------------|--------------------|------------------| 
|--------------------|--------------------|------------------| 
|--------------------|--------------------|------------------| 
|-0---------0--------|-0---------0--------|-0---------3------| 
|-0-7-------0-3-(3)--|-0-7-------0-3-(3)--|-0-7-------3------| 
|-0-7-8b9===0-3-(3)--|-0-7-8b9===0-3-(3)--|-0-7-8b9===3------| 


  E S S S   S S S E S S S   S S S   E S S S   S S S E E   E  E 
|---------------------------------|----------------------------| 
|---------------------------------|----------------------------| 
|---------------------------------|----------------------------| 
|-0---------------0---------------|-0---------------0----------| 
|-0-0-0-------0-0-0-0-0-------0-0-|-0-0-0-------0-0-0----------| 
|-0-0-0-9-/12-0-0-0-0-0-9-/12-0-0-|-0-0-0-9-/12-0-0-0-3-/12\-3-| 


  E S S S   S S S E S S S   S S S   E S S S   S S S E E   E  E 
|---------------------------------|----------------------------| 
|---------------------------------|----------------------------| 
|---------------------------------|----------------------------| 
|-0---------------0---------------|-0---------------0----------| 
|-0-0-0-------0-0-0-0-0-------0-0-|-0-0-0-------0-0-0----------| 
|-0-0-0-9-/12-0-0-0-0-0-9-/12-0-0-|-0-0-0-9-/12-0-0-0-3-/12\-3-| 


  E S S S   S S S E S S S   S S S   E S S S   S S S E E   E  E 
|---------------------------------|----------------------------| 
|---------------------------------|----------------------------| 
|---------------------------------|----------------------------| 
|-0---------------0---------------|-0---------------0----------| 
|-0-0-0-------0-0-0-0-0-------0-0-|-0-0-0-------0-0-0----------| 
|-0-0-0-9-/12-0-0-0-0-0-9-/12-0-0-|-0-0-0-9-/12-0-0-0-3-/12\-3-| 


  E S S S   S S S E S S S   S S S   E S S S   S S S E E   E  E    H    Q  Q 
|---------------------------------|----------------------------|-------------| 
|---------------------------------|----------------------------|-------------| 
|---------------------------------|----------------------------|-------------| 
|-0---------------0---------------|-0---------------0----------|-10----9--3--| 
|-0-0-0-------0-0-0-0-0-------0-0-|-0-0-0-------0-0-0----------|-10----9--3--| 
|-0-0-0-9-/12-0-0-0-0-0-9-/12-0-0-|-0-0-0-9-/12-0-0-0-3-/12\-3-|-10----9--3--| 


  H    Q  Q    E S S S   S S S E S S S   S S S   E S S S   S S S E E   E  E 
|------------|---------------------------------|----------------------------| 
|------------|---------------------------------|----------------------------| 
|------------|---------------------------------|----------------------------| 
|-6----5--1--|-0---------------0---------------|-0---------------0----------| 
|-6----5--1--|-0-0-0-------0-0-0-0-0-------0-0-|-0-0-0-------0-0-0----------| 
|-6----5--1--|-0-0-0-9-/12-0-0-0-0-0-9-/12-0-0-|-0-0-0-9-/12-0-0-0-3-/12\-3-| 


  Q  Q  Q  Q    S S S S S E. Q  Q    Q  Q  Q  Q    S S S S E E E E Q 
|-------------|--------------------|-------------|--------------------| 
|-------------|--------------------|-------------|--------------------| 
|-------------|--------------------|-------------|--------------------| 
|-0--8--7--6--|-0---0---6-8--7--6--|-0--8--7--6--|-0---0---6-8-7-0-3--| 
|-0--8--7--6--|-0---0---6-8--7--6--|-0--8--7--6--|-0---0---6-8-7-0-3--| 
|-0--8--7--6--|-0---0---6-8--7--6--|-0--8--7--6--|-0---0---6-8-7-0-3--| 


  Q  Q  Q  Q    S S S S S E. Q  Q    Q  Q  Q  Q    S S S S E E E E Q 
|-------------|--------------------|-------------|--------------------| 
|-------------|--------------------|-------------|--------------------| 
|-------------|--------------------|-------------|--------------------| 
|-0--8--7--6--|-0---0---6-8--7--6--|-0--8--7--6--|-0---0---6-8-7-0-3--| 
|-0--8--7--6--|-0---0---6-8--7--6--|-0--8--7--6--|-0---0---6-8-7-0-3--| 
|-0--8--7--6--|-0---0---6-8--7--6--|-0--8--7--6--|-0---0---6-8-7-0-3--| 


  +W           +W           E E +E  E E E E E   E E +E  E E E Q 
|------------|------------|-------------------|------------------| 
|------------|------------|-------------------|------------------| 
|------------|------------|-------------------|------------------| 
|-(3)--------|-(3)--------|-0-8-(8)-0-7-0-3-5-|-0-8-(8)-0-7-0-3--| 
|-(3)--------|-(3)--------|-0-8-(8)-0-7-0-3-5-|-0-8-(8)-0-7-0-3--| 
|-(3)--------|-(3)--------|-0-8-(8)-0-7-0-3-5-|-0-8-(8)-0-7-0-3--| 


  E E +E  E E E E E   E E +E  E E E Q    E E +E  E E E E E   E E +E  E E E Q 
|-------------------|------------------|-------------------|------------------| 
|-------------------|------------------|-------------------|------------------| 
|-------------------|------------------|-------------------|------------------| 
|-0-8-(8)-0-7-0-3-5-|-0-8-(8)-0-7-0-3--|-0-8-(8)-0-7-0-3-5-|-0-8-(8)-0-7-0-3--| 
|-0-8-(8)-0-7-0-3-5-|-0-8-(8)-0-7-0-3--|-0-8-(8)-0-7-0-3-5-|-0-8-(8)-0-7-0-3--| 
|-0-8-(8)-0-7-0-3-5-|-0-8-(8)-0-7-0-3--|-0-8-(8)-0-7-0-3-5-|-0-8-(8)-0-7-0-3--| 


  E E +E  E E E E E   E E +E  E E E Q    E E +E  E E E E E   E E +E  E E E Q 
|-------------------|------------------|-------------------|------------------| 
|-------------------|------------------|-------------------|------------------| 
|-------------------|------------------|-------------------|------------------| 
|-0-8-(8)-0-7-0-3-5-|-0-8-(8)-0-7-0-3--|-0-8-(8)-0-7-0-3-5-|-0-8-(8)-0-7-0-3--| 
|-0-8-(8)-0-7-0-3-5-|-0-8-(8)-0-7-0-3--|-0-8-(8)-0-7-0-3-5-|-0-8-(8)-0-7-0-3--| 
|-0-8-(8)-0-7-0-3-5-|-0-8-(8)-0-7-0-3--|-0-8-(8)-0-7-0-3-5-|-0-8-(8)-0-7-0-3--| 


  E E +E  E E E E E   E E +E  E E E Q    E E +E  E E E E E   E E +E  E E E Q 
|-------------------|------------------|-------------------|------------------| 
|-------------------|------------------|-------------------|------------------| 
|-------------------|------------------|-------------------|------------------| 
|-0-8-(8)-0-7-0-3-5-|-0-8-(8)-0-7-0-3--|-0-8-(8)-0-7-0-3-5-|-0-8-(8)-0-7-0-3--| 
|-0-8-(8)-0-7-0-3-5-|-0-8-(8)-0-7-0-3--|-0-8-(8)-0-7-0-3-5-|-0-8-(8)-0-7-0-3--| 
|-0-8-(8)-0-7-0-3-5-|-0-8-(8)-0-7-0-3--|-0-8-(8)-0-7-0-3-5-|-0-8-(8)-0-7-0-3--| 


  E E +E  E E E E E   E E +E  E E E Q    +W           +W 
|-------------------|------------------|------------|--------| 
|-------------------|------------------|------------|--------| 
|-------------------|------------------|------------|--------| 
|-0-8-(8)-0-7-0-3-5-|-0-8-(8)-0-7-0-3--|-(3)--------|-(3)----| 
|-0-8-(8)-0-7-0-3-5-|-0-8-(8)-0-7-0-3--|-(3)--------|-(3)----| 
|-0-8-(8)-0-7-0-3-5-|-0-8-(8)-0-7-0-3--|-(3)--------|-(3)----| 


  +W           +W 
|------------|--------*| 
|------------|--------*| 
|------------|--------*| 
|-(3)--------|-(3)----*| 
|-(3)--------|-(3)----*| 
|-(3)--------|-(3)----*| 



Tablature Legend 
---------------- 
 h   - hammer-on 
 p   - pull-off 
 b   - bend 
 pb  - pre-bend 
 r   - bend release (if no number after the r, then release immediately) 
 /\  - slide into or out of (from/to "nowhere") 
 s   - legato slide 
 S   - shift slide 
  - natural harmonic 
n  - artificial harmonic 
n(n) - tapped harmonic 
 ~   - vibrato 
 tr  - trill 
 T   - tap 
 TP  - trem. picking 
 PM  - palm muting 
\n/  - tremolo bar dip; n = amount to dip 
 \n  - tremolo bar down 
 n/  - tremolo bar up 
/n\  - tremolo bar inverted dip 
 =   - hold bend; also acts as connecting device for hammers/pulls 
 <>  - volume swell (louder/softer) 
 x   - on rhythm slash represents muted slash 
 o   - on rhythm slash represents single note slash 

 
		  

See also:

tabs Axewound - Post Apocalyptic Party tabs Protest The Hero - Mist tabs Devin Townsend - Canada tabs Cancer Bats - Bricks And Mortar tabs Axewound - Blood Money And Lies tabs Protest The Hero - Tapestry
e-chords

Other versions:

tabs Cancer Bats - Bricks And Mortar
auto scroll beats size up size down change color hide chords drawings
tab show chords e-chords YouTube Clip e-chords hide all tabs e-chords go to top tab

share