Camiel

Trying To Get To You

Camiel

tabs

by  ABELAMIN

save to print version add songbook text version e-mail correct tuner
chordsukulelecavacokeyboardtabbassdrumsharmonicaflute Guitar Pro
close

there isn't a video lesson for this song

chords

Trying To Get To You

	  		


Intro/Main Riff 

Apply some funky occasional palm mute at the beginning and end of intro riffs 

                                                   play this part 2 times   
e|---------------------------------------------------------------------------| 
B|-----------------------5--6-------------------------------4/5----------4/5-| 
G|-5--7------------------5--7---------------------------5---4/5------5---4/5-| 
D|-5--7-------3p0-5p0-7----------------3p0-5-7------5h7---7------5h7---7-----| 
A|------3-5p3--------------------3-5p3---------5-----------------------------| 
E|---------------------------------------------------------------------------| 
                                                slightly palm mute this riff 
e|---------------------------------------------------------------------------| 
B|-----------------------5--6------------------------------------------------| 
G|-5--7------------------5--7------------------------------------------------| 
D|-5--7--------3p0-5p0-7---------------3p0-5-7-------------------3p0--5p3----| 
A|-------3-5p3-------------------3-5p3--------------5---5----5p3-------------| 
E|---------------------------------------------------------------------------| 
                 
e|-------------------| 
B|-------------------| 
G|-------------------| 
D|---3p0-5p3---------| 
A|-5----------5------| 
E|-------------------| 

Chorus 

Play 2 times 

e|----------------------------------------------------------| 
B|----------------------------------------------------------| 
G|-------------------2--3--5--5/7--5p3-5p3------------------| 
D|--5p3-5p3-5p3-5p3--------------------------5/7-5p3-5p3----| 
A|----------------------------------------------------------| 
E|----------------------------------------------------------| 


Bridge 

Repeat this part 8 times 

  palm mute                   pm      
e|-------------------8--10---------------8--10-------------------| 
B|----------10-10-10------------10-10-10-------------------------| 
G|(7-7-10)--------------------------------------------7--(7)-----| 
D|-9-9-10-----------------9-10-----------------10--10------------| 
A|---------------------------------------------------------------| 
E|---------------------------------------------------------------| 


Soloooo! 

Because the solo is pretty fast I put some ^ signs where you have to pay  
attention to the accents in the phrasing. 

e|---------------------------------------------------------------------------| 
B|-----8-6p5----------------------------------------------------4/5-x-4/5~~\-| 
G|---7-------7p5-----5------------------------------------5-----4/5-x-4/5~~\-| 
D|-7-------------7p5---7~--7p5--------------x-3--5p3h5-7----7----------------| 
A|-----------------------------8-5~\----3h5----------------------------------| 
E|---------------------------------------------------------------------------| 
                                           palm muted arpeggio/rake 
e|-----------------------------------8-8h10----------------------------------| 
B|--------------------8-8h10-----------------------------10-------10-------10| 
G|-----5-----------------------5--7--------------10-12b14----12b14----12b14--| 
D|-7-x---7p5-----5--7----------------------12~--X----------------------------| 
A|-----------8---------------------------------X-----------------------------| 
E|---------------------------------------------------------------------------| 
                                                     ^     ^ 
e|---------------------------------------------------------------------------| 
B|-------10----------------13p12-----------------10--8-----8/6---------------| 
G|-12b14----12b14~---------------12-----------10-------9-------7~----7-------| 
D|-------------------12h15----------14\----12-----------10-------------------| 
A|---------------------------------------------------------------------------| 
E|---------------------------------------------------------------------------| 
            ^      ^         ^                     ^        ^ 
e|----------------------------------------------------------5h8--------------| 
B|-------7-10-8----8-7---------------------------5-8-5----------8p5----------| 
G|-----7--------10-----10-7--9-7-------------5-7-------7-5----------7-5-5h7p5| 
D|-7h8---------------------------10-8-7~\------------------------------------| 
A|---------------------------------------------------------------------------| 
E|---------------------------------------------------------------------------| 

e|---------------------------------------------------------------------------| 
B|---------------------------------------------8----8--10--------------------| 
G|-------------------------------------7-7--10---10--------------------------| 
D|-7p5\3h5-3~\---3-3--5-5--7-7--10-10----------------------------------------| 
A|---------------------------------------------------------------------------| 
E|---------------------------------------------------------------------------| 

e|---------------------------------------------------------------------------| 
B|-13\12--13\12--13\12--13\12----------------------------------10--11--13----| 
G|-13\12--13\12--13\12--13\12p10----------12p10-12p10-12p10-12---------------| 
D|-------------------------------12\-----------------------------------------| 
A|---------------------------------------------------------------------------| 
E|---------------------------------------------------------------------------| 
                                            play as arpeggio        
e|---------------------------------------------------------------------------| 
B|-13/15--13p11-13p11-----------------------------------10-------------------| 
G|----------------------12/14-12p10-12p10---------10h12----12p10-------------| 
D|------------------------------------------10h12----------------12p10-------| 
A|-----------------------------------------X--------------------------13-12\-| 
E|---------------------------------------------------------------------------| 

e|---------------------------------------------------------------------------| 
B|----------------------10--11--13--13/15--13p11-13p11-----------------------| 
G|-12p10-12p10-12p10-12----------------------------------12/14-12p10-12p10---| 
D|---------------------------------------------------------------------------| 
A|---------------------------------------------------------------------------| 
E|---------------------------------------------------------------------------| 

e|---------------------------------------------------------------------------| 
B|--------------13-----------------------------------------------------------| 
G|----10--12/14----14~\------------------------------------------------------| 
D|---x-----------------------------------------------------------------------| 
A|--x------------------------------------------------------------------------| 
E|---------------------------------------------------------------------------| 



************************************ 

| pm  palm mute 
| /   slide up 
| \   slide down 
| h   hammer-on 
| p   pull-off 
| ~   let ring / vibrato 
| +   harmonic 
| x   Mute note 
| b   Bend 
| pb  Pre-bend 
| br  Bend release 
| pbr Pre-bend release 
| brb Bend release bend 

************************************ 
		  

See also:

tabs Ira! - Envelheço na Cidade tabs Deep Purple - Smoke On Water tabs Ira! - Inundação de Amor tabs Deep Purple - Stormbringer tabs Deep Purple - Money Talks tabs Ira! - A vida por um fio
e-chords

Other versions:

tabs Camiel - Trying To Get To You
auto scroll beats size up size down change color hide chords drawings
tab show chords e-chords YouTube Clip e-chords hide all tabs e-chords go to top tab

share