Call Atlantis

Past Regrets, Future Threats

Call Atlantis

tabs

by  ANG-LETRA

save to print version add songbook text version e-mail correct tuner
chordsukulelecavacokeyboardtabbassdrumsharmonicaflute Guitar Pro
close

there isn't a video lesson for this song

chords

Past Regrets, Future Threats

	  		
(Intro) Guitar1 
e|----------------------------------------------------------------------------| 
B|----------------------------------------------------------------------------| 
G|--10-10-13--13--8--8--------10-10-13--13--8--8--6--6--8--8--8--8------------| 
D|--x--x--x---x---x--x--------x--x--x---x---x--x--x--x--x--x--x--x------------| 
A|--8--8--11--11--6--6--------8--8--11--11--6--6--4--4--6--6--6--6------------| 
D|----------------------------------------------------------------------------| 

e|----------------------------------------------------------------------------| 
B|----------------------------------------------------------------------------| 
G|--10-10-13--13--8--8--6--6--6--6--6--6--6--6--8--8--8--8--8--8--8--8--------| 
D|--x--x--x---x---x--x--x--x--x--x--x--x--x--x--x--x--x--x--x--x--x--x--------| 
A|--8--8--11--11--6--6--4--4--4--4--4--4--4--4--6--6--6--6--6--6--6--6--------| 
D|----------------------------------------------------------------------------| 

Verse- guitar 2 *Repeat this twice* 
    ........................................ (palm muted) 
e|----------------------------------------------------------------------------| 
B|----------------------------------------------------------------------------| 
G|--6-------------------------------------------------------------------------| 
D|--6---x16------4------------8------------6----------------------------------| 
A|--4------------4---x16------8---x16------6---x16----------------------------| 
D|---------------4------------8------------6----------------------------------| 

Verse- Guitar 1 (Comes in on the last 4 notes of the first time round of Guitar 2's 
part, listen and you'll get what I mean) 
e|---------------------------------------------------------------------------| 
B|---------------------------------------------------------------------------| 
G|--8--10-6----------------------8--8--8--8-10-10-10-10----------------------| 
D|--x--x--x----------------------x--x--x--x--x--x--x--x----------------------| 
A|--6--8--4----------------------6--6--6--6--8--8--8--8----------------------| 
D|---------------------------------------------------------------------------| 


Chorus- Guitar 2 *repeat twice* 
e|---------------------------------------------------------------------------| 
B|---------------------------------------------------------------------------| 
G|--6------------------------------------------------------------------------| 
D|--6-x16--4------8-----6-----4----------------------------------------------| 
A|--4------4-x16--8-x8--6-x8--4-x16------------------------------------------| 
D|---------4------8-----6-----4----------------------------------------------| 

Chorus- Guitar 1 *repeat twice* 
e|-----------------------------------------------------------------------------| 
B|-------------------------------------------6-6-6-6---------------------------| 
G|-6-6-8-6-8-6--6-6-8-6-8-6--5-6-6-6-5-6-6-6---------8-8-8-8-5-6-6-6-6-6-6-6-6-| 
D|-----------------------------------------------------------------------------| 
A|-----------------------------------------------------------------------------| 
D|-----------------------------------------------------------------------------| 

Verse 2- Guitar 2 *repeat twice* 
  .......................................... (palm muted) 
e|----------------------------------------------------------------------------| 
B|----------------------------------------------------------------------------| 
G|--6-------------------------------------------------------------------------| 
D|--6---x16------4------------8------------6----------------------------------| 
A|--4------------4---x16------8---x16------6---x16----------------------------| 
D|---------------4------------8------------6----------------------------------| 

Verse 2- Guitar 1 
e|---------------------------------------------------------------------------| 
B|---------------------------------------------------------------------------| 
G|-8-6-8-6-8-6-8-6-8-6-8-6-8-6-8-6--6-5-6-5-6-5-6-5-6-5-6-5-6-5-6-5----------| 
D|---------------------------------------------------------------------------| 
A|---------------------------------------------------------------------------| 
D|---------------------------------------------------------------------------| 
   ................................................................ 
e|---------------------------------------------------------------------------| 
B|-6--6--6--6--6--6--6--6----------------------------------------------------| 
G|---6--6--6--6--6--6--6--6--8-6-8-6-8-6-8-6-8-6-8-6---8-10--6---------------| 
D|-----------------------------------------------------x--x--x---------------| 
A|-----------------------------------------------------6--8--4---------------| 
D|---------------------------------------------------------------------------| 
  .................................................. 
e|---------------------------------------------------------------------------| 
B|---------------------------------------------------------------------------| 
G|-8-6-8-6-8-6-8-6-8-6-8-6-8-6-8-6--6-5-6-5-6-5-6-5-6-5-6-5-6-5-6-5----------| 
D|---------------------------------------------------------------------------| 
A|---------------------------------------------------------------------------| 
D|---------------------------------------------------------------------------| 
   ................................................................ 
e|---------------------------------------------------------------------------| 
B|-6--6--6--6--6--6--6--6----------------------------------------------------| 
G|---6--6--6--6--6--6--6--6--8-6-8-6-8-6-8-6-8-6-8-6-8--8--8--8--10-10-10-10-| 
D|---------------------------------------------------x--x--x--x--x--x--x--x--| 
A|---------------------------------------------------6--6--6--6--8--8--8--8--| 
D|---------------------------------------------------------------------------| 
  .................................................. 


Chorus- Guitar 2 *repeat twice* 
e|---------------------------------------------------------------------------| 
B|---------------------------------------------------------------------------| 
G|--6------------------------------------------------------------------------| 
D|--6-x16--4------8-----6-----4----------------------------------------------| 
A|--4------4-x16--8-x8--6-x8--4-x16------------------------------------------| 
D|---------4------8-----6-----4----------------------------------------------| 

Chorus- Guitar 1 *repeat twice* 
e|---------------------------------------------------------------------------| 
B|-------------------------------------------6-6-6-6-------------------------| 
G|-6-6-8-6-8-6--6-6-8-6-8-6--5-6-6-6-5-6-6-6---------8-8-8-8-4-5-5-5-5-5-5-5-| 
D|---------------------------------------------------------------------------| 
A|---------------------------------------------------------------------------| 
D|---------------------------------------------------------------------------| 

Bridge- Guitar 1 

e|---------------------------------------------------------------------------| 
B|-------------------------------------------6-6-6-6-------------------------| 
G|-6-6-8-6-8-6--6-6-8-6-8-6--5-6-6-6-5-6-6-6---------8-8-8-8-4-5-5-5-5-5-5-5-| 
D|---------------------------------------------------------------------------| 
A|---------------------------------------------------------------------------| 
D|---------------------------------------------------------------------------| 

Solo 
e|----------------------------------------8-8-8-8-8-9/11~--------------------| 
B|--------------------------------9-7-6-7------------------------------------| 
G|-8b-8-8-6-5--6b-6-5--8-6-5-6-----------------------------------------------| 
D|-----------6-------6-------------------------------------------------------| 
A|---------------------------------------------------------------------------| 
D|---------------------------------------------------------------------------| 

e|-16-14-13-----16-16-14-13----16-16-14-13----16-16-14-13--------------------| 
B|----------14--------------14-------------14-------------14-----------------| 
G|---------------------------------------------------------------------------| 
D|---------------------------------------------------------------------------| 
A|---------------------------------------------------------------------------| 
D|---------------------------------------------------------------------------| 

e|-------16-------16-------16-------16-------16------------------------------| 
B|-13-14----13-14----13-14----13-14----13-14---------------------------------| 
G|---------------------------------------------------------------------------| 
D|---------------------------------------------------------------------------| 
A|---------------------------------------------------------------------------| 
D|---------------------------------------------------------------------------| 

e|-21-21-21-21-21-21-21-21-21-21-21-21-21-21-21-21b--------------------------| 
B|---------------------------------------------------------------------------| 
G|---------------------------------------------------------------------------| 
D|---------------------------------------------------------------------------| 
A|---------------------------------------------------------------------------| 
D|---------------------------------------------------------------------------| 

Solo- Guitar 2 *repeat 4 times* 
e|---------------------------------------------------------------------------| 
B|---------------------------------------------------------------------------| 
G|-6-------------------------------------------------------------------------| 
D|-6--x8--4------8------6----------------------------------------------------| 
A|-4------4--x8--8--x8--6--x8------------------------------------------------| 
D|--------4------8------6----------------------------------------------------| 

Chorus 3- Guitar 2 *repeat twice* 
e|---------------------------------------------------------------------------| 
B|---------------------------------------------------------------------------| 
G|--8------------------------------------------------------------------------| 
D|--8-x16--6------10-----8-----6---------------------------------------------| 
A|--6------6-x16--10-x8--8-x8--6-x8------------------------------------------| 
D|---------6------10-----8-----6---------------------------------------------| 

Chorus3- Guitar 1 *repeat twice* 
e|---------------------------------------------------------------------------| 
B|-----------------------------------------------8-8-8-8---------------------| 
G|-8-8-10-8-10-8--8-8-10-8-10-8--7-8-8-8-7-8-8-8--------10-10-10-10-7-5------| 
D|---------------------------------------------------------------------------| 
A|---------------------------------------------------------------------------| 
D|---------------------------------------------------------------------------| 

e|---------------------------------------------------------------------------| 
B|---------------------------------------------------------------------------| 
G|-7-8-8-8-8-8-8-8-8/--------------------------------------------------------| 
D|---------------------------------------------------------------------------| 
A|---------------------------------------------------------------------------| 
D|---------------------------------------------------------------------------| 
		  

auto scroll beats size up size down change color hide chords drawings
tab show chords e-chords YouTube Clip e-chords hide all tabs e-chords go to top tab

share