California Breed

home > California Breed

Breathe Tab

California Breed

Difficulty: nolevelnolevel

by ang%2Dletra

tuner correct add songbook print version text version save to e-mail
chordsukulelecavacokeyboardtabbassdrumsharmonicsflute Guitar Pro
chords

Breathe

  		
Tuning: Eb Ab Db Gb Bb Eb 

Intro/Verse: 0:00 Acoustic, strumming not exact. 

e|---------------------|-----0-3---|-----0-3p0-5-5----| 
B|-------------0-0-0-0-|-----0-0---|-----0-0---0-0----| 
G|-------------x-x-x-0-|-0h5-5-5---|-0h5-5-5---5-5----| 
D|-7/9-9-9-9-9-9-9-9-0-|-0h5-5-5---|-0h5-5-5---5-5----| 
A|-5/7-7-7-7-7-7-7-7-0-|-----------|------------------| 
E|-0---0-0-0-0-8-8-8---|-First end-|--2nd ending------| 

  
Pre-Chorus Chords 0:35 

e|----0-0-0--0-----------------| 
B|----5-5-5--0-----------------| 
G|-7--7-7-6--1--4--------------| 
D|-7--7-7-7--2--4--------------| 
A|-9--0-0-0--2--2--------------| 
E|-7---------0--3--------------| 

Chorus Chords: 1:56 

e|--------------------| 
B|--------------------| 
G|-4--2---------------| 
D|-4--2--0--2---------| 
A|-2--0--0--2---------| 
E|-------3--0---------| 

Post Chorus: 2:12 

e|--0-0-0--0-0-0--0-0-0---------| 
B|--7-7-7--5-5-5--3-3-3---------| 
G|--9-9-8--7-7-6--5-5-4---2-2-1-| 
D|--9-9-9--7-7-7--5-5-5---2-2-2-| 
A|--0-0-0--0-0-0--0-0-0---2-2-2-| 
E|------------------------0-0-0-| 

Interlude 2:23 

e|--2---------------|--2-------------------------| 
B|--0---2--7--0-----|--0--2----------------------| 
G|--0---4--7--1--x2-|--0--4----------------------| 
D|--0---2--7--2-----|--0--2--9999999---5555555---| 
A|--x---4--9--2-----|--x--4--xxxxxxx---xxxxxxx---| 
E|--3---2--7--0-----|--3--2--7777777---3333333---| 

2:47 

e|-------------------------|-----------Solo Line------------| 
B|--------------0----------|--------------------------------| 
G|-4--6-7-4-----1-------0--|-8--9-9/11----12-11-9--7-7/9-9--| 
D|-x--x-x-x-----2---0-2-2--|----------9------------------10-| 
A|-2--4-5-2-----2-------3--|--------------------------------| 
E|--------3-3-2-0-------3--|--------------------------------| 

Outro 3:57 

e|--7-7--7--9--11--12--5-5--5--7--7--7p5---3-3--3--3--5--5--5p3-------0-----| 
B|--7--7--7--7---7-----7--5--5--5--5----5--3--3--3--3--3--3----3------0-----| 
G|--8---8--8--8---8----8---6--6--6--6------4---4--4--4--4--4------2-2-1-----| 
D|--9------------------7-------------------5----------------------2-2-2-----| 
A|--0------------------0-------------------0----------------------2-2-2-----| 
E|----------------------------------------------------------------0-0-0-----|  
	  

Search Paypal
auto scroll beats size up size down change color hide chords drawings
tab show chords e-chords YouTube Clip e-chords hide all tabs e-chords go to top tab