Cage The Elephant

Sell Yourself

Cage The Elephant

tabs

by  ALEFFEDERICO

save to print version add songbook text version e-mail correct tuner
chordsukulelecavacokeyboardtabbassdrumsharmonicaflute Guitar Pro
close

there isn't a video lesson for this song

chords

Sell Yourself

	  		
Intro:
e|--------------------------| 
B|------4~------------------| 
G|--3-4~----4~4~4~4~4~------| 
D|--------------------------| 
A|--------------------------| 
E|--------------------------| 

Verse: Strum slightly quieter each time until you repeat 

e|-----------------| 
B|-----------------| 
G|-4444444444444---| 
D|-xxxxxxxxxxxxx---| 
A|-2222222222222---| (4x) 
E|-----------------| 

Prechorus: 

e|------------| 
B|--------0---| 
G|-4-4-44--3~-| 
D|-4-4-44-----| 
A|-2-2-22-----| (8x) 
E|------------| 

Chorus: 
E|------------------------| 
B|------------------------| 
G|------------------------| 
D|-9-9-9-8-88-7-7-7-6--678| 
A|-9-9-9-8-88-7-7-7-6--678| (4x) 
E|-7-7-7-6-66-5-5-5-4--456| 

Bridge: 

Part 1: 

e|--------------------| 
B|--------------------| 
G|-44444444444444/16--| 
D|--------------------| 
A|--------------------| 
E|--------------------| 

Part 2: 

e|---------------------------*-------| 
B|--------------------15-----*-------| 
G|-15h16-15h16-15h1616-------*-15b19-| 
D|---------------------------*-------| 
A|------------------------x3-*-------| 
E|---------------------------*-------| 

Part 3: 

e|-----------------*------------------------------| 
B|-----------------* 15b17-17-17171717------------| 
G|-8~--------------*-------------------15b16~-----| 
D|----7999b10-7----*------------------------------| 
A|--------------x3-*------------------------------| 
E|-----------------*------------------------------| 

Final Chorus: play this over regular part 

e|-7-7-7-6-66-5-5-5-4-4-4h5--| 
B|---------------------------| 
G|---------------------------| 
D|---------------------------| 
A|---------------------------| (4X) 
E|---------------------------| 

Outro: 

e|----------| 
B|----------| 
G|----------| 
D|-66778899-| 
A|-66778899-| (4x) 
E|-44556677-| 
 
		  

See also:

tabs Cage The Elephant - Back Stabbing Betty tabs Cage The Elephant - Always Something tabs La Vela Puerca - A Lo Verde tabs Cage The Elephant - Lotus tabs Cage The Elephant - Halo tabs Cage The Elephant - Sell Yourself
e-chords

Other versions:

tabs Cage The Elephant - Sell Yourself
auto scroll beats size up size down change color hide chords drawings
tab show chords e-chords YouTube Clip e-chords hide all tabs e-chords go to top tab

share