Café Tacvba

Esperando

Café Tacvba

tabs

by  PETER

save to print version add songbook text version e-mail correct tuner
chordsukulelecavacokeyboardtabbassdrumsharmonicaflute Guitar Pro
close

there isn't a video lesson for this song

chords

Esperando

(Qviqve Rangel)

	  		Para mejores resultados escuchen el CD. 
La versión exacta, únicamente el Sr Enriqve Rangel  
la conoce. 
 
 
G-------------------------- 
D-------------------------- 
A---------------------3--2- 
E--0---0--4------2--------- 
Si llegas al metro, toma el colectivo 
 
G----------------------------- 
D----------------------------- 
A----------------------------- 
E--0----0---4--3--2-----8--7-- 
que te lleve al cruce con el camellón 
 
G------------------------------------ 
D-----------7-------7--6------------- 
A-----4--7------------------7--5--4-- 
E--5--------------------------------- 
dobla a la derecha y antes de la esquina 
 
G----------------------------- 
D---------------2---6--------- 
A-----4--2---4---------7--5--- 
E--2-------------------------- 
verás a un portero fumando un cigarro en el portón 
 
G----------------------------------------- 
D----------------------------------------- 
A----------------------------------------- 
E-----5-----4-5-6-----4-5-7-----4-5-7-9--- 
 dile que te lleve al cuarto piso en el elevador 
 
G--------------------- 
D-------------8--9---- 
A--9--11--12---------- 
E--------------------- 
 por que ya te estoy  
 
G--------------------- 
D--------------------- 
A--------------------- 
E--0--7--11--12------- 
  esperando. 
 
 
______________________________ 
Colaboración de Jorge González  
[email protected]   
		  

See also:

tabs Nicho Hinojosa - ¿y Cómo Es Él? tabs Maná - El Borracho tabs Café Tacvba - Cinco tabs Maná - El Rey Tiburón tabs Elefante - La Que Se Fue tabs Los Panchos - Alma, Corazon Y Vida
e-chords

Other versions:

tabs Café Tacvba - Esperando tabs A.n.i.m.a.l. - Esperando El Final tabs Cogumelo Plutão - Esperando Na Janela tabs Gilberto Gil - Esperando na Janela tabs Las Pastillas Del Abuelo - Esperandome
auto scroll beats size up size down change color hide chords drawings
tab show chords e-chords YouTube Clip e-chords hide all tabs e-chords go to top tab

share