Café Tacvba

Eo

Café Tacvba

tabs

by  PETER

save to print version add songbook text version e-mail correct tuner
chordsukulelecavacokeyboardtabbassdrumsharmonicaflute Guitar Pro
close

there isn't a video lesson for this song

chords

Eo

Year: 2003 - Album: Cuatro Caminos

(E. del real)

	  		[email protected]   

 
 B7                      E7                      B7 
|----------------|-----|------------------|----|----------------|----| 
|-----0-------0--|-----|-----3-------3----|----|-----0-------0--|----| 
|---2---2---2----|-X10-|---1---1---1---1--|-X4-|---2---2---2----|-X2-| 
|---------3------|-----|------------------|----|---------3------|----| 
|-2--------------|-----|---------2--------|----|-2--------------|----| 
|----------------|-----|-0----------------|----|----------------|----| 
 
 C#7               C7               B7 
|----------------|----------------|---------------| 
|-----6-------6--|-----5-------5--|-----4-------4-| 
|---4---4---4----|---3---3---3----|---2---2---2---| 
|---------6------|---------5------|---------4-----| 
|-4--------------|-3--------------|-2-------------| 
|----------------|----------------|---------------| 
 
se repite esta progresion todo el tema, tambien suena bien rasgado 
la guitarra tiene un sonido 'country',  casi seguramente es una telecaster 
 
cualquier cosa escriban 
		  

Full key step upFull key step up
Half key step upHalf key step up
Half key step downHalf key step down
Full key step downFull key step down
hide glossary

See also:

tabs El Tri - Nostalgia tabs Misc Soundtrack - Tema Del Exorcista tabs Maná - Robame El Alma tabs Lagartos - La Quinceañera tabs Maná - Te solté la Rienda tabs Maná - Bendita tu luz (ver. 2)
e-chords

Other versions:

tabs Café Tacvba - Eo tabs Tool - Eon Blue Apocalypes tabs Tool - Eon Blue Apocalypse (ver. 2) tabs Tool - Eon Blue Apocalypse (ver. 3)
auto scroll beats size up size down change color hide chords drawings
tab show chords e-chords YouTube Clip e-chords hide all tabs e-chords go to top tab

share