Café Tacuba

home > Café Tacuba

Cinco Tab

Café Tacuba

Difficulty: nolevelnolevel

by peter

tuner correct add songbook print version text version save to e-mail
chordsukulelecavacokeyboardtabbassdrumsharmonicsflute Guitar Pro
chords

Cinco

	  vallamos al grano... 
 
INTRO 
 
 
e----------------------------------------- 
B---3-2-------3-2-------3-2-------3-2----- 
G-------4-2-------4-2-------4-2-------4-2- 
D----------------------------------------- 
A-2---------0---------2---------0--------- 
E----------------------------------------- 
 
 
LA SIGUIENTE PARTE LLEVA EL INTRO DE FONDO 
 
 
e------------------------------------------- 
B-9-9-9-10-9-7-9--5-6-5-3-7-2--2-5-0-3-2---- 
G-----------------------------------------1- 
D------------------------------------------- 
A------------------------------------------- 
E------------------------------------------- 
 
 
e------------------------------------------- 
B-9-9-9-10-9-7-9--5-6-5-3-7-2--2-5-0-3-2---- 
G-----------------------------------------1- 
D------------------------------------------- 
A------------------------------------------- 
E------------------------------------------- 
 
 
e-------10-7-9-8--5-6-5-3-7-2--2-5-0-3-2---- 
B-9-9-9-----------------------------------1- 
G------------------------------------------- 
D------------------------------------------- 
A------------------------------------------- 
E------------------------------------------- 
 
 
e------------------------------------------- 
B-9-9-9-10-9-7-9--5-6-5-3-7-2--2-5-0-3-2---- 
G------------------------------------------- 
D------------------------------------------- 
A------------------------------------------- 
E------------------------------------------- 
 
 
UNA SERIE DE ACOMPAÑAMIENTOS Y... 
 
 
e-9---7---9---11-11- 
B-9---7---9---11-11- 
G-9---7---9---11-11- 
D------------------- 
A------------------- 
E------------------- 
 
 
LO ANTERIOR SE REPITE X2 Y LA SEGUNDA ES CON EL INTRO 
 
 
e------------------------------------------- 
B-9-9-9-10-9-7-9--5-6-5-3-7-2--2-5-0-3-2---- 
G-----------------------------------------1- 
D------------------------------------------- 
A------------------------------------------- 
E------------------------------------------- 
 
 
e------------------------------------------- 
B-9-9-9-10-9-7-9--5-6-5-3-7-2--2-5-0-3-2---- 
G-----------------------------------------1- 
D------------------------------------------- 
A------------------------------------------- 
E------------------------------------------- 
 
 
e-------10-7-9-8--5-6-5-3-7-2--2-5-0-3-2---- 
B-9---------------------------------------1- 
G------------------------------------------- 
D------------------------------------------- 
A------------------------------------------- 
E------------------------------------------- 
 
 
e------------------------------------------- 
B-9-9-9-10-9-7-9--5-6-5-3-7-2--2-5-0-3-2---- 
G------------------------------------------- 
D------------------------------------------- 
A------------------------------------------- 
E------------------------------------------- 
	  

there isn't a video lesson for this song

request
Search
auto scroll beats size up size down change color hide chords drawings
tab show chords e-chords YouTube Clip e-chords hide all tabs e-chords go to top tab