Byrds

Mr Spaceman

Byrds

tabs

by  LINEKERS

save to print version add songbook text version e-mail correct tuner
chordsukulelecavacokeyboardtabbassdrumsharmonicaflute Guitar Pro
close

there isn't a video lesson for this song

chords

Mr Spaceman

	  		
Gtr I (E A D G B E) - 'Roger McGuinn - Electric 12-string Guitar' 
Gtr II (E A D G B E) - 'David Crosby - Electric Guitar' 
Gtr III (E A D G B E) - 'Roger McGuinn - Electric 12-string Guitar' 


   1st - 3rd Verses 
    Q=212 
    $ 
    G 
   4/4 
    Gtr I 
    Q.    E +E  Q.       H       +E  E E E 
||--------3-(3)-------|--3-------(3)-3-----| 
||o-------------0-----|--0-------------0-0-| 
||------0---(0)-0-----|--------0-(0)---0-0-| 
||------0---(0)----0--|-(0)--0-0-----------| 
||o-------------------|--------------------| 
||--3-----------------|--------------------| 
|   Q   Q   +E  E  Q    +Q   E E +H 
| 
|   Gtr II 
|   Q   Q    Q     Q     Q   Q    Q    Q 
||------3----------3--|------3---------3---| 
||o-----0----------0--|------0---------0---| 
||------0----------0--|------0---------0---| 
||------0----------0--|------0---------0---| 
||o-----2----------2--|------2---------2---| 
||--3---3----3-----3--|--3---3----3----3---| 


  A7 
  Q.    E +E  Q.       H       +E  E Q 
|-------3-(3)-------|--3-------(3)-3-----| 
|-------------2-----|--2-------------2---| 
|-----2---(2)-------|--------2-(2)-------| 
|-----2---(2)----2--|-(2)----2-----------| 
|-0-----------------|------0-------------| 
|-------------------|--------------------| 
| Q   Q   +Q     Q    +Q   E E +H 
| 
| Q   Q    Q     Q     Q   Q    Q    Q 
|-----3----------3--|------3---------3---| 
|-----2----------2--|------2---------2---| 
|-----2----------2--|------2---------2---| 
|-----2----------2--|------2---------2---| 
|-0--------0--------|--0--------0--------| 
|-------------------|--------------------| 


  Dsus4                D                    G 
  E Q   E +Q     E E    Q     E E +H        E Q   E +E  E Q    E Q.    +H 
|-------3-(3)--------|--2-------0-(0)-----|-------3-(3)------|-3---------------| 
|---3------------3---|--------3-----------|---0-----------0--|---0-----(0)-----| 
|-----2---(2)------2-|-(2)----------------|-------------0----|-----------------| 
|-0-----------0------|-----0--------------|-----0------------|------0----------| 
|--------------------|--------------------|------------------|-----------------| 
|--------------------|-------------0---2--|-3--------3-------|----------0---2--| 
| Q   Q   +E  Q.       +E  Q.      Q   Q    Q   Q    H         Q    Q   Q   Q 
| 
| Q   Q    Q     Q      Q     Q    Q   Q    Q   Q    Q    Q    Q    Q   Q   Q 
|-----3----------3---|--------2--------2--|-----3---------3--|------3-------3--| 
|-----3----------3---|--------3--------3--|-----0---------0--|------0-------0--| 
|-----2----------2---|--------2--------2--|-----0---------0--|------0-------0--| 
|-0--------0---------|--0----------0------|-----0---------0--|------0-------0--| 
|--------------------|--------------------|-----2---------2--|------2-------2--| 
|--------------------|--------------------|-3---3----3----3--|-3----3---3---3--| 


  Q.    E +E  Q.       H       +E  E E E 
|-------3-(3)-------|--3-------(3)-3-----| 
|-------------0-----|--0-------------0-0-| 
|-----0---(0)-0-----|--------0-(0)---0-0-| 
|-----0---(0)----0--|-(0)--0-0-----------| 
|-------------------|--------------------| 
|-3-----------------|--------------------| 
| Q   Q   +E  E  Q    +Q   E E +H 
| 
| Q   Q    Q     Q     Q   Q    Q    Q 
|-----3----------3--|------3---------3---| 
|-----0----------0--|------0---------0---| 
|-----0----------0--|------0---------0---| 
|-----0----------0--|------0---------0---| 
|-----2----------2--|------2---------2---| 
|-3---3----3-----3--|--3---3----3----3---| 


  A7 
  Q.    E +E  Q.       H       +E  E Q 
|-------3-(3)-------|--3-------(3)-3----| 
|-------------2-----|--2-------------2--| 
|-----2---(2)-------|--------2-(2)------| 
|-----2---(2)----2--|-(2)----2----------| 
|-0-----------------|------0------------| 
|-------------------|-------------------| 
| Q   Q   +Q     Q    +Q   E E +H 
| 
| Q   Q    Q     Q     Q   Q    Q    Q 
|-----3----------3--|------3---------3--| 
|-----2----------2--|------2---------2--| 
|-----2----------2--|------2---------2--| 
|-----2----------2--|------2---------2--| 
|-0--------0--------|--0--------0-------| 
|-------------------|-------------------| 


  Dsus4                D 
  E Q   E +Q     E E    Q     E E +H 
|-------3-(3)--------|--2-------0-(0)-----| 
|---3------------3---|--------3-----------| 
|-----2---(2)------2-|-(2)----------------| 
|-0-----------0------|-----0--------------| 
|--------------------|--------------------| 
|--------------------|-------------0---2--| 
| Q   Q   +E  Q.       +E  Q.      Q   Q 
| 
| Q   Q    Q     Q      Q     Q    Q   Q 
|-----3----------3---|--------2--------2--| 
|-----3----------3---|--------3--------3--| 
|-----2----------2---|--------2--------2--| 
|-0--------0---------|--0----------0------| 
|--------------------|--------------------| 
|--------------------|--------------------| 


 1. 
  G 
  E Q   E +E  E Q    E Q.    +H       3x 
|-------3-(3)------|-3----------------|| 
|---0-----------0--|---0-----(0)-----o|| 
|-------------0----|------------------|| 
|-----0------------|------0-----------|| 
|------------------|-----------------o|| 
|-3--------3-------|----------0---2---|| 
| Q   Q    H         Q    Q   Q   Q 
| 
| Q   Q    Q    Q    Q    Q   Q   Q   3x 
|-----3---------3--|------3-------3---|| 
|-----0---------0--|------0-------0--o|| 
|-----0---------0--|------0-------0---|| 
|-----0---------0--|------0-------0---|| 
|-----2---------2--|------2-------2--o|| 
|-3---3----3----3--|-3----3---3---3---|| 


                                        Chorus 
  2.,D.S. 
                                      $$ 
  G                                      D 
  E Q   E +E  Q.        H       H        Q.    E +E  Q.      Q.    E +E  Q   E 
|--------------------|----------------||-------2-(2)-3-----|-2-----0-(0)-----0-| 
|-------0-(0)-0------|--0-------------||-----3----------3--|-------------1-----| 
|---0---------0------|--0-------------||-----2----------2--|-----2-------------| 
|-----0------------0-|-(0)----0-2--1--||-0-----------------|-----0-------------| 
|--------------------|----------------||----------0--------|----------0----2---| 
|-3--------3---------|----------------||-------------------|-------------------| 
| Q   Q    Q.      E   +Q.    E Q  Q     Q   Q    Q     Q    Q   Q    Q    Q 
| 
| Q   Q    Q     Q      Q   Q   Q  Q     Q   Q    Q     Q    Q   Q    Q    Q 
|-----3----------3---|------3------3--||-----2----------2--|-----2---------2---| 
|-----0----------0---|------0------0--||-----3----------3--|-----3---------3---| 
|-----0----------0---|------0------0--||-----2----------2--|-----2---------2---| 
|-----0----------0---|------0------0--||-0--------0--------|-0--------0--------| 
|-----2----------2---|------2------2--||-------------------|-------------------| 
|-3---3----3-----3---|--3---3---3--3--||-------------------|-------------------| 


  C                   C/B                 Am 
  E E E E +E  Q   E   E E E E +E  Q   E   E Q   E +E  E Q    Q  E E +E  E Q 
|-------0-(0)-----0-|-------0-(0)-----0-|-------0-(0)---0--|------0-(0)------| 
|---1-1-------1-----|---1-1-------1-1---|---1---------1----|----1-------1----| 
|-----0---------0---|-----0---------0---|-----2------------|--------------2--| 
|---------------0---|-------------------|-----2------------|-----------------| 
|-3--------3--------|-2--------2--------|-0--------0-------|-0-------0-------| 
|-------------------|-------------------|------------------|-----------------| 
| Q   Q    Q    Q     Q   Q    Q    Q     Q   Q    H         H       H 
| 
| Q   Q    Q    Q     Q   Q    Q    Q     Q   Q    Q    Q    Q  Q    Q    Q 
|-----0---------0---|-----0---------0---|-----0---------0--|----0---------0--| 
|-----1---------1---|-----1---------1---|-----1---------1--|----1---------1--| 
|-----0---------0---|-----0---------0---|-----2---------2--|----2---------2--| 
|-----2---------2---|-------------------|-----2---------2--|----2---------2--| 
|-3--------3--------|-2--------2--------|-0--------0-------|-0-------0-------| 
|-------------------|-------------------|------------------|-----------------| 


  G                                   D 
  E Q   E +E  Q   E   E Q   E H       Q.    E +E  Q.      S E. E E +E  E +E  E 
|-------3-(3)-------|-------3-------|-------2-(2)-3-----|-2-3----3-(3)---------| 
|---0---------0-----|---0-----------|-----3----------3--|------3-------0-(0)-0-| 
|-----------------0-|---------------|-----2----------2--|----------------------| 
|-----0---------0---|-----0---2--1--|-0-----------------|-0--------------------| 
|-------------------|---------------|----------0--------|-----------0-----2----| 
|-3--------3--------|-3-------------|-------------------|----------------------| 
| Q   Q    Q    Q     Q   Q   Q  Q    Q   Q    Q     Q    H         Q     Q 
| 
| Q   Q    Q    Q     Q   Q   Q  Q    Q   Q    Q     Q    Q    Q    Q     Q 
|-----3---------3---|-----3------3--|-----2----------2--|------2----------2----| 
|-----0---------0---|-----0------0--|-----3----------3--|------3----------3----| 
|-----0---------0---|-----0------0--|-----2----------2--|------2----------2----| 
|-----0---------0---|-----0------0--|-0--------0--------|-0---------0----------| 
|-----2---------2---|-----2------2--|-------------------|----------------------| 
|-3---3----3----3---|-3---3---3--3--|-------------------|----------------------| 


                                                                  To Coda 
  C                   C/B                 Am 
  E E E E +E  Q   E   Q.    E +E  Q   E   E Q   E +E  E Q    Q  E E H 
|-------0-(0)-----0-|-------0-(0)-----0-|-------0-(0)---0--|------0-------| 
|---1-1-------1-----|-------------1-----|---1---------1----|----1---------| 
|-----0---------0---|-------------------|-----2------------|--------------| 
|---------------0---|---------------0---|-----2------------|--------------| 
|-3--------3--------|-2--------2--------|-0--------0-------|-0------------| 
|-------------------|-------------------|------------------|--------0--2--| 
| Q   Q    Q    Q     H        Q    Q     Q   Q    H         H      Q  Q 
| 
| Q   Q    Q    Q     Q   Q    Q    Q     Q   Q    Q    Q    Q  Q   Q  Q 
|-----0---------0---|-----0---------0---|-----0---------0--|----0------0--| 
|-----1---------1---|-----1---------1---|-----1---------1--|----1------1--| 
|-----0---------0---|-----0---------0---|-----2---------2--|----2------2--| 
|-----2---------2---|-------------------|-----2---------2--|----2------2--| 
|-3--------3--------|-2--------2--------|-0--------0-------|-0------0-----| 
|-------------------|-------------------|------------------|--------------| 


                               D.S. 
  G 
                                    Gt 
  E E E E +E  E Q    E E +Q   H 
|-------3-(3)------|---3-(3)--------|| 
|---0-0-------0-0--|---0-(0)--------|| 
|-----0---------0--|----------------|| 
|------------------|------0---------|| 
|------------------|----------------|| 
|-3--------3-------|-3--------0--2--|| 
| Q   Q    Q    Q    Q    Q   Q  Q 
| 
|                                   Gt 
| Q   Q    Q    Q    Q    Q   Q  Q 
|-----3---------3--|------3------3--|| 
|-----0---------0--|------0------0--|| 
|-----0---------0--|------0------0--|| 
|-----0---------0--|------0------0--|| 
|-----2---------2--|------2------2--|| 
|-3---3----3----3--|-3----3---3--3--|| 
| 
|                                   Gt 
| W                  W 
|------------------|----------------|| 
|------------------|----------------|| 
|------------------|----------------|| 
|------------------|----------------|| 
|------------------|----------------|| 
|------------------|----------------|| 


 Guitar Solo 
  G 
 r III 
   E  E  +E   E  +S   E.     Q     H.                   Q 
|------------10-(10)------------|-10-------------------10---| 
|-10h12-(12)---------12-----12--|-12h=13-(13)-12-12---------| 
|-------------------------------|---------------------------| 
|-------------------------------|---------------------------| 
|-------------------------------|---------------------------| 
|-------------------------------|---------------------------| 
|                                  E   E  +E   E  H 
| 
|r I 
|  Q.         E  +E      Q.        H             +E  E  E E 
|-------------3--(3)------------|--3-------------(3)-3------| 
|------------------------0------|--0--------------------0-0-| 
|---------0------(0)-----0------|--------------0-(0)----0-0-| 
|---------0------(0)---------0--|-(0)------0---0------------| 
|-------------------------------|---------------------------| 
|--3----------------------------|---------------------------| 
|  Q      Q      +E      E   Q    +Q       E   E +H 
| 
|r II 
|  Q      Q       Q          Q     Q       Q      Q     Q 
|---------3------------------3--|----------3------------3---| 
|---------0------------------0--|----------0------------0---| 
|---------0------------------0--|----------0------------0---| 
|---------0------------------0--|----------0------------0---| 
|---------2------------------2--|----------2------------2---| 
|--3------3-------3----------3--|--3-------3------3-----3---| 


  A7 
   E  E  E  E  E   E   Q     Q    Q    H 
|-------10----------------|------10---10--------| 
|-10h12----10-10--10------|-10--------------10--| 
|---------------------12--|---------------------| 
|-------------------------|---------------------| 
|-------------------------|---------------------| 
|-------------------------|---------------------| 
|                            H.              Q 
| 
|  Q.       E +E   Q.        H        +E  E  Q 
|-----------3-(3)---------|--3--------(3)-3-----| 
|------------------2------|--2---------------2--| 
|--------2----(2)---------|---------2-(2)-------| 
|--------2----(2)------2--|-(2)-----2-----------| 
|--0----------------------|-------0-------------| 
|-------------------------|---------------------| 
|  Q     Q    +Q       Q    +Q    E E +H 
| 
|  Q     Q     Q       Q     Q    Q    Q     Q 
|--------3-------------3--|-------3----------3--| 
|--------2-------------2--|-------2----------2--| 
|--------2-------------2--|-------2----------2--| 
|--------2-------------2--|-------2----------2--| 
|--0-----------0----------|--0---------0--------| 
|-------------------------|---------------------| 


  Dsus4                      D 
   Q      E   E  H            Q.       E  Q    Q 
|-10-----10--10------------|-10-------------------| 
|-10h12-(12)----10-----8---|-10-------10------10--| 
|--------------------------|-------------12-------| 
|--------------------------|----------------------| 
|--------------------------|----------------------| 
|--------------------------|----------------------| 
|  E  E  +Q      Q     Q 
| 
|  E  Q       E +Q     E E    Q     E  E +H 
|-------------3-(3)--------|--2--------0-(0)------| 
|-----3----------------3---|--------3-------------| 
|---------2-----(2)------2-|-(2)------------------| 
|--0----------------0------|-----0----------------| 
|--------------------------|----------------------| 
|--------------------------|--------------0----2--| 
|  Q      Q     +E  Q.       +E  Q.       Q    Q 
| 
|  Q      Q      Q     Q      Q     Q     Q    Q 
|---------3------------3---|--------2----------2--| 
|---------3------------3---|--------3----------3--| 
|---------2------------2---|--------2----------2--| 
|--0-------------0---------|--0-----------0-------| 
|--------------------------|----------------------| 
|--------------------------|----------------------| 


  G 
   Q     Q     Q     Q     Q.      E  Q    Q 
|-10----10--------------|---------------------| 
|-10h12-12-10-10--------|------------10---10--| 
|-----------------------|---------------------| 
|-------------------12--|-12-------x----------| 
|-----------------------|---------------------| 
|-----------------------|---------------------| 
|  E  E  E  E  Q     Q 
| 
|  E  Q     E +E  E  Q     E  Q.     +H 
|-----------3-(3)-------|--3------------------| 
|-----0--------------0--|-----0------(0)------| 
|-----------------0-----|---------------------| 
|--------0--------------|--------0------------| 
|-----------------------|---------------------| 
|--3-----------3--------|-------------0----2--| 
|  Q     Q     H           Q     Q    Q    Q 
| 
|  Q     Q     Q     Q     Q     Q    Q    Q 
|--------3-----------3--|--------3---------3--| 
|--------0-----------0--|--------0---------0--| 
|--------0-----------0--|--------0---------0--| 
|--------0-----------0--|--------0---------0--| 
|--------2-----------2--|--------2---------2--| 
|--3-----3-----3-----3--|--3-----3----3----3--| 


   Q.         E  Q      E  E    Q      E  E  +Q     E  E 
|-10---------10-10-----10-10-|--------10-10-(10)---10-10-| 
|-10h12-(12)-12-12-----12-12-|-12--13-13-13--12----------| 
|----------------------------|---------------------------| 
|----------------------------|---------------------------| 
|----------------------------|---------------------------| 
|----------------------------|---------------------------| 
|  E  E  +E   E  Q      E  E    E   E  E  E   Q     Q 
| 
|  Q.         E +E  Q.          H            +E  E  E  E 
|-------------3-(3)----------|--3------------(3)-3-------| 
|-------------------0--------|--0-------------------0--0-| 
|---------0-----(0)-0--------|------------0--(0)----0--0-| 
|---------0-----(0)-----0----|-(0)-----0--0--------------| 
|----------------------------|---------------------------| 
|--3-------------------------|---------------------------| 
|  Q      Q     +E  E   Q      +Q      E  E  +H 
| 
|  Q      Q      Q      Q       Q      Q      Q     Q 
|---------3-------------3----|---------3------------3----| 
|---------0-------------0----|---------0------------0----| 
|---------0-------------0----|---------0------------0----| 
|---------0-------------0----|---------0------------0----| 
|---------2-------------2----|---------2------------2----| 
|--3------3------3------3----|--3------3------3-----3----| 


  A7                                             Dsus4 
   E  E  E  E  E   E   Q     H        Q     Q     H             H 
|-------10--------10------|--------------------|-10--------------------10----| 
|-10h12----10-10----------|-10-------------10--|-10h12-(12)-13-13--13-----12-| 
|---------------------12--|----------12--------|-----------------------------| 
|-------------------------|--------------------|-----------------------------| 
|-------------------------|--------------------|-----------------------------| 
|-------------------------|--------------------|-----------------------------| 
|                                                 E  E  +E   E  E   E   E  E 
| 
|  Q.       E +E   Q.        H       +E  E  Q     E  Q       E +Q       E  E 
|-----------3-(3)---------|--3-------(3)-3-----|-------------3-(3)-----------| 
|------------------2------|--2--------------2--|-----3------------------3----| 
|--------2----(2)---------|--------2-(2)-------|---------2-----(2)---------2-| 
|--------2----(2)------2--|-(2)----2-----------|--0-----------------0--------| 
|--0----------------------|------0-------------|-----------------------------| 
|-------------------------|--------------------|-----------------------------| 
|  Q     Q    +Q       Q    +Q   E E +H           Q      Q     +E   Q. 
| 
|  Q     Q     Q       Q     Q   Q    Q     Q     Q      Q      Q       Q 
|--------3-------------3--|------3----------3--|---------3--------------3----| 
|--------2-------------2--|------2----------2--|---------3--------------3----| 
|--------2-------------2--|------2----------2--|---------2--------------2----| 
|--------2-------------2--|------2----------2--|--0-------------0------------| 
|--0-----------0----------|--0--------0--------|-----------------------------| 
|-------------------------|--------------------|-----------------------------| 


                                                               D.S.S. al Coda 
  D                           G 
   Q      E  E  Q       Q      E.    S  +E   E  +E   E  Q     W 
|-10-----10-10-10------10---|-10----10-(10)-10-(10)-10-----|------------------|| 
|-12-----12-12-10h=12-(12)--|-10h12-10-(10)-10-(10)-10-10--|-10---------------|| 
|---------------------------|--------------------------12--|-12---------------|| 
|---------------------------|------------------------------|------------------|| 
|---------------------------|------------------------------|------------------|| 
|---------------------------|------------------------------|------------------|| 
|  Q      E  E  E   E  +Q      E  S  S  +E   E  +E   E  Q     W 
| 
|  Q      E  E +H              E  Q          E  +E   E  Q     E Q.    +H 
|--2---------0-(0)----------|----------------3--(3)--------|--3---------------|| 
|---------3-----------------|-----0---------------------0--|----0-----(0)-----|| 
|-(2)-----------------------|------------------------0-----|------------------|| 
|-----0---------------------|------------0-----------------|-------0----------|| 
|---------------------------|------------------------------|------------------|| 
|---------------0-------2---|--3-----------------3---------|-----------0---2--|| 
| +E  Q.        Q       Q      Q         Q       H            Q    Q   Q   Q 
| 
|  Q      Q     Q       Q      Q         Q       Q      Q     Q    Q   Q   Q 
|---------2-------------2---|------------3--------------3--|-------3-------3--|| 
|---------3-------------3---|------------0--------------0--|-------0-------0--|| 
|---------2-------------2---|------------0--------------0--|-------0-------0--|| 
|--0------------0-----------|------------0--------------0--|-------0-------0--|| 
|---------------------------|------------2--------------2--|-------2-------2--|| 
|---------------------------|--3---------3-------3------3--|--3----3---3---3--|| 


 Outro 
  & 
  G 
   Q     E  E  +E   E  Q       Q   Q   H          +W            +W 
|-10----10-10-(10)-10-10----|-10------10-------|-------------|---------*| 
|-10h12-12-12-(12)-12-10h12-|-10--12--10h12----|-(12)--------|-(12)----*| 
|---------------------------|------------------|-------------|---------*| 
|---------------------------|------------------|-------------|---------*| 
|---------------------------|------------------|-------------|---------*| 
|---------------------------|------------------|-------------|---------*| 
|  E  E  E  E  +E   E  E  E    Q   Q   E  Q. 
| 
| Gtr II 
|  Q     Q      Q      Q       Q   Q   H          +W            +W 
|--------3-------------3----|------3---3-------|--(3)--------|--(3)----*| 
|--------0-------------0----|------0---0-------|--(0)--------|--(0)----*| 
|--------0-------------0----|------0---0-------|--(0)--------|--(0)----*| 
|--------0-------------0----|------0---0-------|--(0)--------|--(0)----*| 
|--------2-------------2----|----------2-------|--(2)--------|--(2)----*| 
|--3-----3------3------3----|--3-------3-------|--(3)--------|--(3)----*| 


Duration Legend 
--------------- 
W - whole; H - half; Q - quarter; E - 8th; S - 16th; T - 32nd; X - 64th; a - acciaccatura 
+ - note tied to previous; . - note dotted; .. - note double dotted 
Uncapitalized letters represent notes that are staccato (1/2 duration) 
Irregular groupings are notated above the duration line 
Duration letters will always appear directly above the note/fret number it represents the 
duration for.  Duration letters with no fret number below them represent rests.  Multi- 
bar rests are notated in the form Wxn, where n is the number of bars to rest for.  Low 
melody durations appear below the staff 

Tablature Legend 
---------------- 
 h   - hammer-on 
 p   - pull-off 
 b   - bend 
 pb  - pre-bend 
 r   - bend release (if no number after the r, then release immediately) 
 /\  - slide into or out of (from/to "nowhere") 
 s   - legato slide 
 S   - shift slide 
  - natural harmonic 
n  - artificial harmonic 
n(n) - tapped harmonic 
 ~   - vibrato 
 tr  - trill 
 T   - tap 
 TP  - trem. picking 
 PM  - palm muting 
\n/  - tremolo bar dip; n = amount to dip 
 \n  - tremolo bar down 
 n/  - tremolo bar up 
/n\  - tremolo bar inverted dip 
 =   - hold bend; also acts as connecting device for hammers/pulls 
 <>  - volume swell (louder/softer) 
 x   - on rhythm slash represents muted slash 
 o   - on rhythm slash represents single note slash 

Misc Legend 
----------- 
 |  - bar 
||  - double bar 
||o - repeat start 
o|| - repeat end 
*|  - double bar (ending) 
 :  - bar (freetime) 
 $  - Segno 
 &  - Coda 
Tempo markers -  = BPM(8/16=s8/s16), where s8 = swing 8ths, s16 = swing 16ths 
		  

See also:

tabs Johnny Cash - Ghost Riders In The Sky (solo) tabs Johnny Cash - Folsom Prison Blues (key of E) tabs Journey - Do Stop Believing tabs Jimi Hendrix - Purple Haze (ver. 3) tabs George Thorogood and The Destroyers - Bad to the bone tabs Johnny Cash - Cocaine Blues (live)
e-chords

Other versions:

tabs Byrds - Mr Spaceman
auto scroll beats size up size down change color hide chords drawings
tab show chords e-chords YouTube Clip e-chords hide all tabs e-chords go to top tab

share